Oops, an error
Loading. Please wait.
We have an official Your Touch tab made by UG professional guitarists. Check out the tab »
×

Your Touch tab

version 3
version 3

Whole song

Interactive

29,998 views 24 this week
6 commentsread comments
1 2 3 4 5
x 16
add to favorites
×
Save as Personal and add changes to this tab that will be seen only by you. Learn more ›
×
You can save this tab as Personal to edit and correct it or add notes. All changes will be seen only by you. Learn more »
launch autoscroll
font size
0
reset
how to read this tab
guitar tuner
backing track
0:00
0:00
edit
Autoscroll
slow
fast
+/-
esc
set tempo
stop
Difficulty
intermediate
Band: The Black Keys
Song: "Your Touch"
Waxx: Magic Potion
---
Tuning: Standard - EADGBe
---
Transcribed by In eFFigy

Intro
------------------------------|
------------------------------|
------------------------------|
------------------------------|
-0--------3---55555-3-5(6)-3--| Slightly bend the C
------3-0---5-----------------|

Riff A
-----x-x-x-x-------------------|
-----x-x-x-x-------------------|
-----x-x-x-x--------(0)--------| The ghost notes create a G-type chord which is just
-2---x-x-x-x-7-5-555(0)-2------| thrown between the A, D and C chords throughout most
-0---x-x-x-x-5-3-333(0)-0------| of the song. Just mess with the rythem, you'll get it.
-----x-x-x-x-------------------|

Another variation of Riff A
********************************
--------x--------------------- *
--------x--------------------- *
--------x----x---x-----x------ *
-2------x----x-7-x-5-5-x-2---- *
-0------x-3^-x-5-x-3-3-3-0---- *
----10\-x--------------------- *
********************************

"Solo" Over Riff A
-------------------------------| Feeback, over-bending/vibrato on the D
-------------------------------|
-7~~~~~~~~~~~~~~~~~~~~~~~~~~~-
------------------------------|
------------------------------|
------------------------------|

-x----------------------------| Feedback again, strong vibrato on the A
-x----------------------------|
-x----------------------------|
-x-7~~~~~~~~~~~~~~~~~~~~~~~~~-
-x----------------------------|
-x----------------------------|

------------------------------| Feedback, harmonics, vibrato...
------------------------------| all that good shit. =]
------------------------------|
-7~~~7h9-9/12-----------------|
------------------------------|
------------------------------|

------------| Feedback again
------------| Use your guitars vibrato to "dive-bomb" these notes a bit.
----5-5h7~--|
-5~---------|
------------|
------------|

I think that there may be a bit of this behind Riff A and all of the feedback...

------------------------------|
------------------------------|
-----------5~-----------------|
------5h7~--------------------|
-5h7~-------------------------|
------------------------------|

Intro riff again, X2
------------------------------|
------------------------------|
------------------------------|
------------------------------|
-0--------3---55555-3-5(6)-3~-|
------3-0---5-----------------|

Riff A until the end of the song
-----x-x-x-x------------------|
-----x-x-x-x------------------|
-----x-x-x-x--------(0)-------|
-2---x-x-x-x-7-5-555(0)-2-----|
-0---x-x-x-x-5-3-333(0)-0-----|
-----x-x-x-x------------------|

Lyrics are NOT guaranteed
------------------------
What I want
You got it
So much
I'm crazy for

Your touch

Well I'll be good
Like I should
Way down inside
Misery I need

Your Touch

(the next two lines are inaudible)
Please rush
I need

Your Touch

            
            
Suggest correction
Creating personal tab
Creating personal tab
You can edit any tab online and save it as your Personal.

You can edit, replace or remove any tab part or add personal notes – all changes will be seen only by you.

Personal tabs can be accessed anytime from any device, even offline.
Learn more »
comments
print report bad tab
6 comments total. Showing first comments.
0 reply
crash_man33 20 Oct 10, 2007 07:26 PM

beginning is good, but the riff doesint sound right

0 reply
derryfraser 10 Dec 04, 2007 06:03 AM

Try
this;

--------------------------------------------
--------------------------------------------
-------------------
-------------------------
-----25-7-575-2-----------------------------
-\10-03-5-353-0-----------------------------
-
-------------------------------------------

0 reply
derryfraser 10 Dec 04, 2007 06:06 AM

Fucked that up didn't I?

Try
this;
----------------
----------------
----------------
-----25-7-575-2-
-10/-03-5-353-0-
----------------

guest
Wanna post a correction for this tab? Suggest correction