Oops, an error
Loading. Please wait.

Skies Above tab

version 1
version 1

Whole song

10,032 views 1 this week
2 commentsread comments
1 2 3 4 5
2 more votes to show rating
add to favorites
×
Save as Personal and add changes to this tab that will be seen only by you. Learn more ›
×
You can save this tab as Personal to edit and correct it or add notes. All changes will be seen only by you. Learn more »
launch autoscroll
font size
0
reset
how to read this tab
guitar tuner
edit
Autoscroll
slow
fast
+/-
esc
set tempo
stop
Author
Difficulty
Tablature Legend
----------------
 h   - hammer-on
 p   - pull-off
 b   - bend
 pb  - pre-bend
 r   - bend release (if no number after the r, then release immediately)
 /\  - slide into or out of (from/to "nowhere")
 s   - legato slide
 S   - shift slide
  - natural harmonic
[n]  - artificial harmonic
n(n) - tapped harmonic
 ~   - vibrato
 tr  - trill
 T   - tap
 TP  - trem. picking
 PM  - palm muting
\n/  - tremolo bar dip; n = amount to dip
 \n  - tremolo bar down
 n/  - tremolo bar up
/n\  - tremolo bar inverted dip
 =   - hold bend; also acts as connecting device for hammers/pulls
 <>  - volume swell (louder/softer)
 x   - on rhythm slash represents muted slash
 o   - on rhythm slash represents single note slash

Clean Intro

I-0----0-2-3------0-2------------------2-----|I
I-0--0-----1--3--3--3---0-0-0-0---3---3-3-3--|I
I-0-----------2-2-------0-----0--2---4---4---|I
I-2----0------0---------2-----2----4---------|I
I----------3-----3--2---3-----3----2---------|I
I--------------------------------------------|I


I-0-0-0-0--3-------------1--0---0-2-3--2-0----0---|I
I-1-1-1-1-3--1---1------1------0----0------3---3--|I
I-2-----2-------2-2----2--------------0-0-0--2----|I
I--------------3------3-------2-------------0-----|I
I-0-----0-----3------3-------2------3-------------|I
I------------1------1-------0--------------2------|I


I-----------0---0-2--3-2-3--5--3-5-7------0---0-2--|I
I-0-----0-3----0-----0--------3----0--0------0-----|I
I----0-2--------------0-0-0--2-----0-0-0-----------|I
I---0---------2-------------0-------0-------2------|I
I------------2-------3---------------------2-------|I
I-3---------0-----------------------------0--------|I


I-3-2-0------0--------------------|I
I-0-------3---3--0---------0-0-0--|I
I--0-0-0----2------0--0-2--0-0-0--|I
I----------0------0-0-0-----2-2---|I
I-3------------------------3------|I
I---------2------3----------------|I

I--------------------0-----0---0-3------0-0---------3---|I
I-0--3---------------0--1-----1---------1---3-1-0---0---|I
I-2-2---0---0-------0--0-----0------2----2-2-2-2-----0--|I
I-2--------2--4-0--2--2-----2---------2-----------0-----|I
I---------0---2----3-----------------0-0----------------|I
I-2---------------------------------------1------3-3----|I

I-3-----------2--2-------0--------|I
I-------0-0---3--2-------1--5-4---|I
I------0-------4-2---2----2-4-----|I
I---2h4-----4----------2----4-----|I
I--2-------2-2--------0-0---2-----|I
I-0--------------2----------------|I

I-----2--2-0-------5---5------4-----|I
I-0---3--0---3-2---0-2-2----0-5-5---|I
I------4--0-0-0---2----2-1-2--6--6--|I
I---4------------2------------------|I
I--2-2----------0-------------4-----|I
I--------3-------------2------------|I

I----2-----------2------|I
I-0--0-----2----4-4-----|I
I-0--0--2-4--4-4---4----|I
I-0-----------4---------|I
I-------4----2----------|I
I-3-----2---------------|I


Distortion Riff 1

|----------------------------------------------------------------------|
|----------------------------------------------------------------------|
|----------------------------------------------------------------------|
|----------------[n]----------------[n]--------------------------------|
|-----------------5~-----------------5br4------------------------------|
|--0-0-0--3p0--0-------0-0-0-3p0--0-------0-0-0--3p0--0--5-3-2--3-2-0--|


Melody/Solo

|-----------------------------------------------------|
|--12--------12--14--15----14--12--10---12--10--------|
|--------11-------------------------------------12----|
|-----------------------------------------------------|
|-----------------------------------------------------|
|-----------------------------------------------------|

|-----------------------------------------------------|
|--12--------12--14---15--14---15--17---15--17---/19--|
|--------11-------------------------------------------|
|-----------------------------------------------------|
|-----------------------------------------------------|
|-----------------------------------------------------|

|-----------------------------------------------------|
|--12--------12--14--15----14--12--10---12--10--------|
|--------11-------------------------------------12----|
|-----------------------------------------------------|
|-----------------------------------------------------|
|-----------------------------------------------------|

|-----------------------------------------------------|
|-----------------------------------------------------|
|--11--11--/14--14--14--14--12---/17--10--9---5--7----|
|-----------------------------------------------------|
|-----------------------------------------------------|
|-----------------------------------------------------|

|-----------------------------------------------------|
|-----------------------------------------------------|
|--7-----/14--14---12--10--9---/17--17----------------|
|-----------------------------------------------------|
|-----------------------------------------------------|
|-----------------------------------------------------|

|-----------------------------------------------------|
|-----------------------------------------------------|
|--16----12----9---7-----14--5----2--5--7-------------|
|-----------------------------------------------------|
|-----------------------------------------------------|
|-----------------------------------------------------|


I don't know.. just suddenly out of nowhere had this melody in my head and couldn't find 
anywhere on the internet, so here I tabbed it on the fly.

If things are off, or wether you'd like to request more, please e-mail me at; Zeblackcat@gmail.com

Otherwise, I hope you enjoy. May continue the rest later @,@


~Intro credits; the_brianator

            
            
Suggest correction
Creating personal tab
Creating personal tab
You can edit any tab online and save it as your Personal.

You can edit, replace or remove any tab part or add personal notes – all changes will be seen only by you.

Personal tabs can be accessed anytime from any device, even offline.
Learn more »
Give kudos to tab author, rate the tab!
1 2 3 4 5
comments
print report bad tab
2 comments total.
+1 reply
manju 138 Jan 16, 2010 04:32 PM

Um... I think the Distortion Riff 1 goes like this

|----------------------------------|
|----------------------------------|
|----------------------------------|
|----------------------------------|
|-------2---3ph-----2ph--0---------|
|-0-0-0---0-----0-0--------3-2-3-2-|

Thats how I play it :\

0 reply
JenoUnion 399 May 10, 2012 10:52 AM

To both ZeBlackCat and Manju (and anyone else, I guess), the distortion riff is played:

|--------------------------------------------|
|--------------------------------------------|
|--------------------------------------------|
|--------------------------------------------|
|-------------3ph-----------2ph--------------|
|-0-0-0-5-0-0-----0-0-3-0-0-----0---3-5-3-2--|

|---------------------------------------------|
|---------------------------------------------|
|---------------------------------------------|
|---------------------------------------------|
|-------------3ph-----------2ph---------------|
|-0-0-0-5-0-0-----0-0-3-0-0------3-5-3-2-3-2--|

Hope it helps!

guest
You may want to rate the tab now too:
select rating
Wanna post a correction for this tab? Suggest correction