Oops, an error
Loading. Please wait.

Vamo Alla Flamenco intro tab

version 4
version 4

Whole song

10,567 views 6 this week
1 commentread comment
1 2 3 4 5
x 4
add to favorites
×
Save as Personal and add changes to this tab that will be seen only by you. Learn more ›
×
You can save this tab as Personal to edit and correct it or add notes. All changes will be seen only by you. Learn more »
launch autoscroll
font size
0
reset
how to read this tab
guitar tuner
edit
Autoscroll
slow
fast
+/-
esc
set tempo
stop
E|---------------------------------------------|
B|----------13-12----12~~----------------------|
G|-14-13-14-------14------13----11-13----------|
D|---------------------------14----------------|
A|---------------------------------------------|
E|---------------------------------------------|


E|---------------------------------------------|
B|----------13-12----15~~-12-------------------|
G|-14-13-14-------14--------12~----------------|
D|---------------------------------------------|
A|---------------------------------------------|
E|---------------------------------------------|

E|----------12--------------------------------------------|
B|-13-12-13----15-13-15~~-12-------12-13~-12~-------------|
G|---------------------------12-14------------14-13-14~~--|
D|--------------------------------------------------------|
A|--------------------------------------------------------|
E|--------------------------------------------------------|

well there it is. the CORRECT version of Vamo Alla Flamenco. theres a couple of slides 
palm mutes in there but you'll figure it out if you listen to it.

For any questions/comments e-mail me at erasermcfleafly@yahoo.com

            
            
Suggest correction
Creating personal tab
Creating personal tab
You can edit any tab online and save it as your Personal.

You can edit, replace or remove any tab part or add personal notes – all changes will be seen only by you.

Personal tabs can be accessed anytime from any device, even offline.
Learn more »
comments
print report bad tab
1 comment total.
0 reply
Scintillance 12 Oct 10, 2014 10:09 PM

This is the main melody that starts when the overdriven guitar plays after the acoustic intro. I'm disappointed, as I thought this was the aforementioned intro. Perfect tab, it's just labeled wrong.

guest
You may want to rate the tab now too:
select rating
Wanna post a correction for this tab? Suggest correction