Oops, an error
Loading. Please wait.

Almost Rising Tab

version 2
version 2

Whole song

268 views 1 this week
no commentswrite comment
1 2 3 4 5
please rate
add to favorites
launch autoscroll
font size
0
reset
how to read this tab
guitar tuner
Autoscroll
slow
fast
+/-
esc
set tempo
stop
Help us to improve Ultimate-Guitar.com Take our survey!
×
Contributor
Difficulty
Tuning
intermediate
D# G# C# F# A# D#
BLACK PACIFIC

ALMOST RISING


tune half step down
INTRO x2
Eb|--------------------------------|
Bb|--------------------------------|
Gb|--------------------------------|
Db|--------7-7-777-----------------|
Ab|4-4-444-5-5-555-9-9-999-999-999-|
Eb|2-2-222---------7-7-777-777-777-|

Eb|--------------------------------|
Bb|--------------------------------|
Gb|--------------------------------|
Db|--------7-7-777-----------------|
Ab|4-4-444-5-5-555-9-9-999-77991097|
Eb|2-2-222---------7-7-777-5577-875|

gtr 2
Eb|----------------------------------------------|
Bb|---------------------------12-----------------|
Gb|--------11--13--14--13-11-----11--13-14-13-11-|
Db|14-14-----------------------------------------|
Ab|----------------------------------------------|
Eb|----------------------------------------------|

Eb|----------------------------------------------|
Bb------------------------12---------------------|
Gb|----11--13--14--13-11-----11--13-14-13-11-----|
Db|14--------------------------------------------|
Ab|----------------------------------------------|
Eb|----------------------------------------------|

VERSE  (part 1) x2
Eb|-------------------------------------------------------------------------|
Bb|-------------------------------------------------------------------------|
Gb|-------------------------------------------------------------------------|
Db|--------------------------------------7--777-777-77777-------------------|
Ab|4-xx-x-xx-x-xxxx-2--4-xx-x-xx-x-xxxx2-5--555-555-55555-9--999-9977991097-|
Eb|2-xx-x-xx-x-xxxx-0--2-xx-x-xx-x-xxxx0------------------7--777-775577-875-|

VERSE (part 2) x2
Eb|----------------------------------------------------------------------|
Bb|----------------------------------------------------------------------|
Gb|----------------------------------------------------------------------|
Db|------------------------------------7--777-777-77777------------------|
Ab|4--4--2224--4--2224--4--2224--4--2225--555-555-55555-9--999-9977991097|
Eb|2--2--0002--2--0002--2--0002--2--000-----------------7--777-775577-875|

CHORUS (this is my......)
Eb|-------------------------------------------------------------------------|
Bb|-------------------------------------------------------------------------|
Gb|-------------------------------------------------------------------------|
Db|7--7--7777--7--7779--9--9999--9--999-------------------------------------|x2
Ab|5--5--5555--5--5557--7--7777--7--7774--4--2224--4--2224--4--2224--4--222-|
Eb|------------------------------------2--2--0002--2--0002--2--0002--2--000-|

Eb|----------------------------------------------------------------|
Bb|----------------------------------------------------------------|
Gb|----------------------------------------------------------------|
Db|7-7-7-7-7-7-7-7-9-9-9-9-9-9-9-9-1111111111111111111111111111111-|
Ab|5-5-5-5-5-5-5-5-7-7-7-7-7-7-7-7-9-9-9-9-9-9-9-9-9-9-9-9-9-9-9-9-|
Eb|----------------------------------------------------------------|

Eb|-------------------------------------------------|
Bb|-------------------------------------------------|
Gb|-------------------------------------------------|
Db|7--7--7777--7--7779--9--9999--9--999-------------|
Ab|5--5--5555--5--5557--7--7777--7--7774------------|
Eb|------------------------------------2--let ring--|

gtr 2 -same as intro

intro
verse
chorus

SOLO THING
Eb|-----------------------------------------------------|
Bb|-----------------------------------------------------|
Gb|11-11-11111114-14-14141413-13-13131314141616141313---|
Db|-----------------------------------------------------|  x2
Ab|9--9--9-9-9-12-12-12121211-11-11111112121414121111---|
Eb|-----------------------------------------------------|

Eb|---------------------------------------------------|
Bb|14-14-14141214-14-14141214-14-14141214141515141111-|
Gb|---------------------------------------------------|
Db|11-11-11119-11-11-11119-11-11-11119-11111212119-9--|
Ab|---------------------------------------------------|
Eb|---------------------------------------------------|

Eb|----------------------------------------------------------|
Bb|14-14-14141214-14-14141217-17171717171719-1919191919191919|
Gb|----------------------------------------------------------|
Db|11-11-11119-11-11-11119-14-14141414141416-1616161616161616|
Ab|----------------------------------------------------------|
Eb|----------------------------------------------------------|

chorus
intro

ENDING
Eb|---------------------|
Bb|---------------------|
Gb|---------------------|
Db|---------------------|
Ab|4-xx-x-xx-x-xxxx-2--4|
Eb|2-xx-x-xx-x-xxxx-0--2|

amazing song!!!!!!!!
comments
We did not receive enough feedback on this tab! Please rate:
print report bad tab
1 2 3 4 5
I want to post or [tab]
guest
You may want to rate the tab now too:
select rating
Please do not post tabs as comments. Select "correction" instead!