Oops, an error
Loading. Please wait.

Fire bass

3,286 views 6 this week
no commentswrite comment
1 2 3 4 5
2 more votes to show rating
add to favorites
×
Save as Personal and add changes to this tab that will be seen only by you. Learn more ›
×
You can save this tab as Personal to edit and correct it or add notes. All changes will be seen only by you. Learn more »
launch autoscroll
font size
0
reset
guitar tuner
edit
Autoscroll
slow
fast
+/-
esc
set tempo
stop
Author
Difficulty
If you have a distortion pedal chuck in some wah, its dead fun to play with.

Intro
G-----------------------------------------------|
D-------------6-------------------6-------------|
A--6-8----------8-------6-8---------8---88-88---|
E-----------------------------------------------|

Verse-part:1  (repeat twice)
FIRE..      ..BURNING...OUT THERE.. ..IN THE DARK!
G------------------------------------------------------|
D----------8--------------------8-------8-6-6----------|
A--6-8--6h8----6-8--8----6-8-6h8----6-8----8-----------|
E--------------------8---------------------------------|

Verse-part:2 (repeat twice)
G-------------------------------------------------------|
D-------------6-------------------------6---------------|
A--6-8-6-8-6h8--6-8-6-8-6h8--6-8-6-8-6h8--6-8-6-8-6h8---|
E--------------------------8-------------------------8--|

G----------------------------------------------------|
D-------------6-------------------------6------8-6-6-|
A--6-8-6-8-6h8--6-8-6-8-6h8--6-8-6-8-6h8--6-8-----8--|
E--------------------------8-------------------------|

Trumpets and Chorus (repeat while theres singing)
G-----------------------------------------------------|
D-----------------------------------------------------|
A-----------------------------------------------------|
E--6--6-8-4--1-3-4-3--6--6-8-4-1-3-4-3----------------|

Jam (repeat until the verse pops back)
G----------------------------|
D----------------------------|
A----------------------------|
E--1--1-1--1-1-1-3-3-4-4-3-3-|

play intro followed by verse-part:2

Chorus
Jam

After the synth freak out play this:

Outro Jam (repeat with ad-lib if you want until the song ends)
G----------------------------------|
D---3------3-----------------------|
A----------------------------------|
E-1--1-1-1--1-1-1-1-3-3-4-4-3-3----|

What chu say??!!

Im The Funk Master DC!!

The Black Seeds are fairly fly check out the site
www.theblackseeds.com

            
            
Suggest correction
Creating personal tab
Creating personal tab
You can edit any tab online and save it as your Personal.

You can edit, replace or remove any tab part or add personal notes – all changes will be seen only by you.

Personal tabs can be accessed anytime from any device, even offline.
Learn more »
Give kudos to tab author, rate the tab!
1 2 3 4 5
comments
print report bad tab
guest
You may want to rate the tab now too:
select rating
Wanna post a correction for this tab? Suggest correction