Oops, an error
Loading. Please wait.

Go Burn City Hall Tab

version 1
version 1

Whole song

Interactive

1,030 views 1 this week
1 commentread comment
1 2 3 4 5
accurate
x 3
add to favorites
launch autoscroll
font size
0
reset
how to read this tab
guitar tuner
Autoscroll
slow
fast
+/-
esc
set tempo
stop
Help us to improve Ultimate-Guitar.com Take our survey!
×
Author
Hi, I'm martijn and I'm 14 years old. This is my first tab, hope you like it. It's 
damn close to perfect!

Legend:
. = palm mute
~ = let ring
^ = staccato, short note

Intro:
clean, reverb
e---------8---------------8--------|---------8----------------8-------|
B------8----8---8------8----8---8--|------8----8--8--------8----8--8--|
G---10--10---10-----10--10---10----|---10--10---10------10--10---10---| 5x
D-8---------------8----------------|-0----------------0---------------|
A----------------------------------|----------------------------------|
E----------------------------------|----------------------------------|

e---------8---------------8--------|-8--|
B------8----8---8------8----8---8--|-8--|
G---10--10---10-----10--10---10----|-10-|
D-8---------------8----------------|-0--|
A----------------------------------|----|
E----------------------------------|----|

Drum fill

Chorus:
heavy distorted
e--------------------|---------------------|
B--------------------|---------------------|
G--------------------|---------------------| 3x
D-888--888--888--888-|-777--777--777--777--|
A-888--888--888--888-|-555--555--555--555--|
E-666--666--666--666-|-555--555--555--555--|
  ..   ..   ..   ..    ..   ..   ..   ..

e--------------------|---------------------|
B--------------------|---------------------|
G--------------------|---------------------|
D-888--888--888--888-|-777--777~-----------|
A-888--888--888--888-|-555--555~-----------|
E-666--666--666--666-|-555--555~-----------|
  ..   ..   ..   ..    ..   ..


Verse:
clean, reverb
e---------8---------------8--------|---------8----------------8-------|
B------8----8---8------8----8---8--|------8----8--8--------8----8--8--|
G---10--10---10-----10--10---10----|---10--10---10------10--10---10---| 3x
D-8---------------8----------------|-0----------------0---------------|
A----------------------------------|----------------------------------|
E----------------------------------|----------------------------------|

e---------8---------------8--------|-8--|
B------8----8---8------8----8---8--|-8--|
G---10--10---10-----10--10---10----|-10-|
D-8---------------8----------------|-0--|
A----------------------------------|----|
E----------------------------------|----|

Drum fill

Chorus:
heavy distorted
e--------------------|---------------------|
B--------------------|---------------------|
G--------------------|---------------------| 4x
D-888--888--888--888-|-777--777--777--777--|
A-888--888--888--888-|-555--555--555--555--|
E-666--666--666--666-|-555--555--555--555--|
  ..   ..   ..   ..    ..   ..   ..   ..

Interlude:
e---------------|----|
B---------------|----|
G---------------|----|
D-88888888------|-7~-|
A-88888888-[6x]-|-5~-|
E-66666666------|-5~-|

Verse:
clean, reverb
e---------8---------------8--------|---------8----------------8-------|
B------8----8---8------8----8---8--|------8----8--8--------8----8--8--|
G---10--10---10-----10--10---10----|---10--10---10------10--10---10---| 3x
D-8---------------8----------------|-0----------------0---------------|
A----------------------------------|----------------------------------|
E----------------------------------|----------------------------------|

e---------8---------------8--------|-8--|
B------8----8---8------8----8---8--|-8--|
G---10--10---10-----10--10---10----|-10-|
D-8---------------8----------------|-0--|
A----------------------------------|----|
E----------------------------------|----|

Drum fill

Chorus:
heavy distorted
e--------------------|---------------------|
B--------------------|---------------------|
G--------------------|---------------------| 3x
D-888--888--888--888-|-777--777--777--777--|
A-888--888--888--888-|-555--555--555--555--|
E-666--666--666--666-|-555--555--555--555--|
  ..   ..   ..   ..    ..   ..   ..   ..

Interlude:
heavy distorted
e--------------------|---------------------|
B--------------------|---------------------|
G--------------------|---^^^----^^^--------|
D-888--888--888--888-|---777----777--------|
A-888--888--888--888-|---555----555--------|
E-666--666--666--666-|---555----555--------|
  ..   ..   ..   ..

Bridge:
heavy distorted
e--------------------|---------------------------|
B--------------------|---------------------------|
G---^^^----^^^-[5x]--|---------------^^^-^^^-[4x]|
D---777----777-------|-888-888--8\8~-777-777-----|
A---555----555-------|-888-888--8\5~-555-555-----|
E---555----555-------|-666-666--6\5~-555-555-----|

Guitar 2
clean
e------8-----|
B----8---8---|
G-10---------| 15x
D------------|
A------------|
E------------|


Drum fill

Outro:
heavy distorted
e----------------------------------------|----------------------------|
B----------------------------------------|----------------------------|
G-8888888888888888-7777777777777777-[3x]-|-8888888888888888--^^^-^^^--|
D-8888888888888888-7777777777777777------|-8888888888888888--777-777--|
A-6666666666666666-5555555555555555------|-6666666666666666--555-555--|
E----------------------------------------|-------------------555-555--|
Suggest correction
What's this?
You can suggest a correction to this tab. Community and Mods will review your correction and vote to approve or reject it.
comments
We did not receive enough feedback on this tab! Please rate:
print report bad tab
1 2 3 4 5
1 comment total.
+1 reply
Toxic-Waste 16 wrote on April 5 2007, 07:01 pm

Ace :P *Thumbs Up*

guest
You may want to rate the tab now too:
select rating
Please do not post tabs as comments. Select "correction" instead!