Oops, an error
Loading. Please wait.

Hard Slammin Tab

version 2
version 2

Whole song

Interactive

2,309 views 1 this week
no commentswrite comment
1 2 3 4 5
2 more votes to show rating
add to favorites
launch autoscroll
font size
0
reset
how to read this tab
guitar tuner
Autoscroll
slow
fast
+/-
esc
set tempo
stop
Help us to improve Ultimate-Guitar.com Take our survey!
×
Author
Difficulty
novice
This is the tab for Hard Slammin' from The Blackout's EP The Blackout! The Blackout! The Blackout!

Key: 
h    Hammer-On
p    Pull-Off
*    Palm-Mute
x    String-Mute

-Intro-

Eb|-------------------------------------------------------------|
Bb|-------------------------------------------------------------|
Gb|-------------------------------------------------------------|
Db|-----------------------------------------------0-------0-----|
Ab|---------2p0-------------2p0-----------2p0-----0-------0-----|
Db|-2h4-0-0-----0-0-2h4-0-0-----0-2h4-0-0-----0-0-0---0-0-0---0-|
        * *     * *     * *     *     * *     * *     * *     *

Eb|-----------------------------------------------------------|
Bb|-----------------------------------------------------------|
Gb|-----------------------------------------------------------|
Db|-----------------------------------------------------------|  Repeat All
Ab|---------2p0-------------2p0-----------2p0-----7h9p7-------|
Db|-2h4-0-0-----0-0-2h4-0-0-----0-2h4-0-0-----0-0------9-7h9--|
        * *     * *     * *     *     * *     * *     

-Verse-

Eb|--------------------------|
Bb|--------------------------|
Gb|--------------------------|
Db|-----------------------22-|
Ab|---------2p0-----------22-|
Db|-2h4-0-0---------------22-|
        * *                *

Eb|--------------------------------|
Bb|--------------------------------|
Gb|-------------------9-9-11-11-11-|
Db|-------------------x-x-x--x--x--| 
Ab|---------2p0-------7-7-9--9--9--| 
Db|-2h4-0-0------------------------|
        * *       

Eb|--------------------------|
Bb|--------------------------|
Gb|--------------------------|
Db|-----------------------22-|
Ab|---------2p0-----------22-|
Db|-2h4-0-0---------------22-|
        * *                *

Eb|--------------------------------|
Bb|--------------------------------|
Gb|-------------------9-9-11-11-11-|
Db|-------------------x-x-x--x--x--| 
Ab|---------2p0-------7-7-9--9--9--| 
Db|-2h4-0-0------------------------|
        * *

Eb|--------------------------|
Bb|--------------------------|
Gb|--------------------------|
Db|-----------------------22-|
Ab|---------2p0-----------22-|
Db|-2h4-0-0---------------22-|
        * *                *

Eb|--------------------------------|
Bb|--------------------------------|
Gb|-------------------9-9-11-11-11-|
Db|-------------------x-x-x--x--x--| 
Ab|---------2p0-------7-7-9--9--9--| 
Db|-2h4-0-0------------------------|
        * *

Eb|--------------------------|
Bb|--------------------------|
Gb|--------------------------|
Db|-----------------------22-|
Ab|---------2p0-----------22-|
Db|-2h4-0-0---------------22-|
        * *                *

Eb|--------------------------------|
Bb|--------------------------------|
Gb|--------------------------------|
Db|--------------------------------| 
Ab|---------2p0--------------------| 
Db|-2h4-0-0------------------------|

-Chorus-

Eb|---------------------------------|
Bb|---------------------------------|
Gb|---------------------------------|
Db|-4-4-4-4-7-7-7-7-0-0-0-0-9-9-7-7-|
Ab|-4-4-4-4-7-7-7-7-0-0-0-0-9-9-7-7-|
Db|-4-4-4-4-7-7-7-7-0-0-0-0-9-9-7-7-|

Eb|---------------------------------|
Bb|---------------------------------|
Gb|---------------------------------|
Db|-4-4-4-4-7-7-7-7-0-0-0-0-0-0-0-0-|  Repeat All
Ab|-4-4-4-4-7-7-7-7-0-0-0-0-0-0-0-0-|
Db|-4-4-4-4-7-7-7-7-0-0-0-0-0-0-0-0-|

-Verse 2-


Eb|--------------------------|
Bb|--------------------------|
Gb|--------------------------|
Db|-----------------------22-|
Ab|---------2p0-----------22-|
Db|-2h4-0-0---------------22-|
        * *                *

Eb|-----------------------------|
Bb|-----------------------------|
Gb|-----------------------------|
Db|-----------------------------|
Ab|---------2p0-----7h9p7-------| 
Db|-2h4-0-0-----0-0------9-7h9--|
        * *     * *  

Eb|--------------------------|
Bb|--------------------------|
Gb|--------------------------|
Db|-----------------------22-|
Ab|---------2p0-----------22-|
Db|-2h4-0-0---------------22-|
        * *                *

Eb|--------------------------------|
Bb|--------------------------------|
Gb|-------------------9-9-11-11-11-|
Db|-------------------x-x-x--x--x--| 
Ab|---------2p0-------7-7-9--9--9--| 
Db|-2h4-0-0------------------------|
        * *

Eb|--------------------------|
Bb|--------------------------|
Gb|--------------------------|
Db|-----------------------22-|
Ab|---------2p0-----------22-|
Db|-2h4-0-0---------------22-|
        * *                *

Eb|--------------------------------|
Bb|--------------------------------|
Gb|-------------------9-9-11-11-11-|
Db|-------------------x-x-x--x--x--| 
Ab|---------2p0-------7-7-9--9--9--| 
Db|-2h4-0-0------------------------|
        * *

Eb|--------------------------|
Bb|--------------------------|
Gb|--------------------------|
Db|-----------------------22-|
Ab|---------2p0-----------22-|
Db|-2h4-0-0---------------22-|
        * *                *

Eb|--------------------------------|
Bb|--------------------------------|
Gb|--------------------------------|
Db|--------------------------------| 
Ab|---------2p0--------------------| 
Db|-2h4-0-0------------------------|

-Chorus-

-Interlude-

Eb|----------------------|
Bb|----------------------|
Gb|----------------------|
Db|-4-------*PICKSLIDE*--| 
Ab|-4-------*PICKSLIDE*--| 
Db|-4-------*PICKSLIDE*--|

Each note is tremolo Picked:
Eb|------------------------------------------------------------------|
Bb|------------------------------------------------------------------|
Gb|------------------------------------------------------------------| Repeat
Db|-4-7-6-7-9-7-6-7-4-7-6-7-9-11-9-7-0-7-6-7-9-7-6-7-9-7-6-7-11-9-7-6| 
Ab|------------------------------------------------------------------| 
Db|------------------------------------------------------------------|


Eb|----------------------------------------| \
Bb|----------------------------------------|  \
Gb|----------------------------------------|   \
Db|-4-4-4---4-4-4---4-4-4---4-4-4--4--7--7-|    \
Ab|-4-4-4---4-4-4---4-4-4---4-4-4--4--7--7-|     \
Db|-4-4-4---4-4-4---4-4-4---4-4-4--4--7--7-|      \
    * *     * *     * *     * *                    Repeat
                                                  /
Eb|--------------------------------------|       /
Bb|--------------------------------------|      /
Gb|-----------------------------4---2----|     /
Db|-0-0-0---0-0-0---0-0-0---0-0-4---2----|    /
Ab|-0-0-0---0-0-0---0-0-0---0-0-2---0----|   /
Db|-0-0-0---0-0-0---0-0-0---0-0----------|  /
    * * *   * * *   * * *   * *

Eb|----------------------------------------| 
Bb|----------------------------------------|  
Gb|----------------------------------------|   
Db|-4-4-------7--7------0------------------|    
Ab|-4-4-7h12--7--7-7h12-0------------------|    
Db|-4-4-------7--7------0------------------|

-Chorus-
Play for twice as long as normal


-Outro-


Eb|-----------------------------------------------------------|
Bb|-----------------------------------------------------------|
Gb|-----------------------------------------------------------|
Db|-----------------------------------------------------------|  
Ab|---------2p0-------------2p0-----------2p0-----7h9p7-------|
Db|-2h4-0-0-----0-0-2h4-0-0-----0-2h4-0-0-----0-0------9-7h9--|
        * *     * *     * *     *     * *     * *  

Eb|-------------------------------------------------------------|
Bb|-------------------------------------------------------------|
Gb|-------------------------------------------------------------|
Db|-----------------------------------------------0-------0-----|
Ab|---------2p0-------------2p0-----------2p0-----0-------0-----|
Db|-2h4-0-0-----0-0-2h4-0-0-----0-2h4-0-0-----0-0-0---0-0-0---0-|
        * *     * *     * *     *     * *     * *     * *     *

Eb|-------------------------------------------------------------|
Bb|-------------------------------------------------------------|
Gb|-------------------------------------------------------------|
Db|-----------------------------------------------0-------0-----|
Ab|---------2p0-------------2p0-----------2p0-----0-------0-----|
Db|-2h4-0-0-----0-0-2h4-0-0-----0-2h4-0-0-----0-0-0---0-0-0---0-|
        * *     * *     * *     *     * *     * *     * *     *

Eb|----------------------------------------------------|
Bb|----------------------------------------------------|
Gb|----------------------------------------------------|
Db|---------------------------------------------4-4----|
Ab|---------2p0-------------2p0-----------2p0---4-4----|
Db|-2h4-0-0-----0-0-2h4-0-0-----0-2h4-0-0-----0-4-4----|
        * *     * *     * *     *     * *     *  
Suggest correction
Give kudos to tab author, rate the tab!
1 2 3 4 5
comments
print report bad tab
guest
You may want to rate the tab now too:
select rating
Wanna post a correction for this tab? Suggest correction