Oops, an error
Loading. Please wait.

Higher And Higher Bass Tab

version 1
version 1

Whole song

Interactive

4,155 views 12 this week
no commentswrite comment
1 2 3 4 5
excellent!
x 5
add to favorites
launch autoscroll
font size
0
reset
guitar tuner
Tab Pro tools
  • play this tab
  • loop segment
  • change instrument
  • show fretboard
  • metronome
Autoscroll
slow
fast
+/-
esc
set tempo
stop
Contributor
Tuning
D A D G B E
-------------------------------------------------------------------------------
			     HIGHER AND HIGHER - The Blackout
-------------------------------------------------------------------------------

Tabbed By : mariewong.


Tuning: Drop D.


Intro [00:08]

G|---------------------------------------|
D|---------------------------------------|
A|---------------------------------------|
D|--555-3-555-3-55-3---555-3-555-3-55-3--|
                                               [x2]
G|--------------------------------------|
D|--------------------------------------|
A|--111---111---11-----111---111---11---|
D|------1-----1----1-------1-----1----1-|



Verse [00:25]

G|--------------------------------------------|
D|--------------------------------------------|
A|------------333--11111----------------------|     [x2]
D|--55555555--------------11111111--33333333--|



Pre-chorus [00:42]

G|-------------------------------------|
D|-------------------------------------|
A|--------------------1-1------1-1-----|
D|--3-3-5\---3-3-5\-------1\-------1\--|

G|-------------------------------------------------------|
D|-------------------------------------------------------|
A|--------------------------------1-1------------1-1-----|
D|--3-3-5-5-5555---3-3-5-5-5555-------1-1-1111-------1\--|



Chorus [00:59]

G|---------------------------------------|
D|---------------------------------------|
A|---------------------------------------|
D|--555-3-555-3-55-3---555-3-555-3-55-3--|
                                               [x2]
G|--------------------------------------|
D|--------------------------------------|
A|--111---111---11-----111---111---11---|
D|------1-----1----1-------1-----1----1-|



Post-chorus [01:16]

G|--------------------------|
D|--------------------------|
A|--------------------------|
D|--5(x16)---1(x8)---3(x8)--|



Verse [01:24]

G|--------------------------------------------|
D|--------------------------------------------|
A|------------333--11111----------------------|     [x2]
D|--55555555--------------11111111--33333333--|



Pre-chorus [01:41]

G|-------------------------------------|
D|-------------------------------------|
A|--------------------1-1------1-1-----|
D|--3-3-5\---3-3-5\-------1\-------1\--|

G|-------------------------------------------------------|
D|-------------------------------------------------------|
A|--------------------------------1-1------------1-1-----|
D|--3-3-5-5-5555---3-3-5-5-5555-------1-1-1111-------1\--|



Chorus [01:58]

G|---------------------------------------|
D|---------------------------------------|
A|---------------------------------------|
D|--555-3-555-3-55-3---555-3-555-3-55-3--|
                                               [x2]
G|--------------------------------------|
D|--------------------------------------|
A|--111---111---11-----111---111---11---|
D|------1-----1----1-------1-----1----1-|



Bridge [02:15]

G|-------------------------|
D|-------------------------|
A|-------------------------|
D|--5-5----5-5----5-5~--5--|

G|---------------------------|
D|---------------------------|
A|----------3-5-1-3-1--------|     [x7]
D|--5-5-3-5-----------5-3-0--|

G|---------------------|
D|---------------------|
A|---------------------|
D|--5-5-3-5-555555555--|



Chorus [02:40]

G|---------------------------------------|
D|---------------------------------------|
A|---------------------------------------|
D|--555-3-555-3-55-3---555-3-555-3-55-3--|
                                               [x2]
G|--------------------------------------|
D|--------------------------------------|
A|--111---111---11-----111---111---11---|
D|------1-----1----1-------1-----1----1-|



Outro [02:57]

G|-------------------------------------------|
D|-------------------------------------------|
A|--------------------1-1------1-1-----------|
D|--3-3-5\---3-3-5\-------1\-------1\--1-11--|

G|-------------------------------------------------------------|
D|-------------------------------------------------------------|
A|--------------------------------1-1------------1-1-----------|
D|--3-3-5-5-5555---3-3-5-5-5555-------1-1-1111-------1\--5-55--|





| /  slide up
| \  slide down
| h  hammer-on
| p  pull-off
| ~  vibrato
| +  harmonic
| x  Mute note
===============================================================================
comments
print report bad tab
I want to post or [tab]
guest
You may want to rate the tab now too:
select rating
Please do not post tabs as comments. Select "correction" instead!