Oops, an error
Loading. Please wait.

Higher And Higher Tab

version 1
version 1

Whole song

Interactive

7,664 views 1 this week
no commentswrite comment
1 2 3 4 5
accurate
x 8
add to favorites
launch autoscroll
font size
0
reset
how to read this tab
guitar tuner
Tab Pro tools
  • play this tab
  • loop segment
  • change instrument
  • show fretboard
  • metronome
Autoscroll
slow
fast
+/-
esc
set tempo
stop
Contributor
As always ... it's not perfect, but it works playing along to me!

INTRO:
(listen for timings ... i cannot write them down for the life of me :L)


e|-----------------|      |-----------------|
B|-----------------|      |-----------------|
G|-----------------|      |--3-----3----3---|
D|--5--3--5--3-5-3-|  X2  |--3--3--3--3-3-3-|  X2
A|--5--3--5--3-5-3-|      |--1--3--1--3-1-3-|
E|--3--1--3--1-3-1-|      |-----1-----1---1-|

then that whole thing X3
first time normal, 2nd & 3rd times with distortion.


VERSE:

palm muted 

e|--------------------------------------------------------------------|
B|--------------------------------------------------------------------|
G|--------------------------------------------------------------------|
D|--5-5-5-5-5-5-5-5-5-5-5-5-5-5-5-5--3-3-3-3-3-3-3-3-3-3-3-3-3-3-3-3--|  X2
A|--5-5-5-5-5-5-5-5-5-5-5-5-5-5-5-5--3-3-3-3-3-3-3-3-3-3-3-3-3-3-3-3--|
E|--3-3-3-3-3-3-3-3-3-3-3-3-3-3-3-3--1-1-1-1-1-1-1-1-1-1-1-1-1-1-1-1--|


BRIDGE:

e|-----------|      |--------------|
B|-----------|      |--------------|
G|-----------|      |--3--3--------|
D|--5--3--5--|  X2  |--3--3--3-----|  X2
A|--5--3--5--|      |--1--1--3-----|
E|--3--1--3--|      |--------1-----|


CHORUS:

e|-----------------|      |-----------------|
B|-----------------|      |-----------------|
G|-----------------|      |--3-----3----3---|
D|--5--3--5--3-5-3-|  X2  |--3--3--3--3-3-3-|  X2
A|--5--3--5--3-5-3-|      |--1--3--1--3-1-3-|
E|--3--1--3--1-3-1-|      |-----1-----1---1-|

this is repeated twice 

then the part in between the next verse and here is just:

e|-----|      
B|-----|     
G|-----|      
D|--5--|  X13
A|--5--|      
E|--3--|

then the backing of the rap:

e|------------------------------|
B|------------------------------|
G|------------------------------|
D|--5-5------------0------------|
A|--5-5--------1-3---3h1--------|
E|--3-3--1h3-3-----------3-1-1--|

just repeat.

then the chorus, then the bridge in the part they say 'higher and higher' a lot!

again i say, it's not 100% but it works fine for me!


tabbed by SkiaMaree
comments
print report bad tab
I want to post or [tab]
guest
You may want to rate the tab now too:
select rating
Please do not post tabs as comments. Select "correction" instead!