Oops, an error
Loading. Please wait.

Higher And Higher Tab

version 4
version 4

Whole song

Interactive

2,214 views 1 this week
no commentswrite comment
1 2 3 4 5
please rate
add to favorites
launch autoscroll
font size
0
reset
how to read this tab
guitar tuner
Autoscroll
slow
fast
+/-
esc
set tempo
stop
Help us to improve Ultimate-Guitar.com Take our survey!
×
Author
Difficulty
Tuning
intermediate
D A D G B E
Intro (X2)

e|--------------------------------------------------------------------------|
B|--------------------------------------------------------------------------|
G|--------------------------------------------------------------------------|
D|--------------------------------------------------------------------------|
A|--------------------------------------------------------------------------|
D|--555-333-555-333-55-33---555-333-555-333-55-33---------------------------|

e|--------------------------------------------------------------------------|
B|--------------------------------------------------------------------------|
G|------------(1's, not eleven)---------------------------------------------|
D|--111-----111-----11-----111-----111-----11-------------------------------|
A|------111-----111----11------111-----111----11----------------------------|

e|--------------------------------------------------------------------------|
B|--------------------------------------------------------------------------|
G|--------------------------------------------------------------------------|
D|--555-333-555-333-55-33-555-333-555-333-55-33-----------------------------|
A|--555-333-555-333-55-33-555-333-555-333-55-33-----------------------------|
D|--555-333-555-333-55-33-555-333-555-333-55-33-----------------------------|

e|--------------------------------------------------------------------------|
B|--------------------------------------------------------------------------|
G|--333-----333-----33------333-----333-----33------------------------------|
D|--333-111-333-111-11-11---333-111-333-111-33-11---------------------------|
A|--111-111-111-111-11-11---111-111-111-111-11-11---------------------------|
D|------111-----111----11-------111-----111----11-(Also 1's)----------------|

Verse (Guitar comes in at 0:33-ish, this is played several times until pre-chorus)
e|--------------------------------------------------------------------------|
B|--------------------------------------------------------------------------|
G|--12--12--12--12-12--12--12-----------------------------------------------|
D|---x---x---x---x--x---x---x-----------------------------------------------|
A|--10--10--10--10-10--10--10-----------------------------------------------|
D|--------------------------------------------------------------------------|
 Pre-chorus (0:42)
e|--------------------------------------------------------------------------|
B|--------------------------------------------------------------------------|
G|-----------------------------3-3-----3-3----------------------------------|
D|-------3-3--5---3-3--5-------3-3-1---3-3-1--------------------------------|
A|-------3-3--5---3-3--5-------1-1-1---1-1-1--------------------------------|
D|--10\--3-3--5---3-3--5-----------1-------1--------------------------------|

e|--------------------------------------------------------------------------|
B|--------------------------------------------------------------------------|
G|------------------------------------------3-3----------------3-3----------|
D|--3-3--5--5-5-5-5-5---3-3--5--5-5-5-5-5---3-3-1--1-1-1-1-1---3-3-1--------|
A|--3-3--5--5-5-5-5-5---3-3--5--5-5-5-5-5---1-1-1--1-1-1-1-1---1-1-1--------|
D|--3-3--5--5-5-5-5-5---3-3--5--5-5-5-5-5-------1--1-1-1-1-1-------1--------|
            |--P.M--|           |--P.M--|          |--P.M--|

Chorus 0:59 X2
e|--------------------------------------------------------------------------|
B|--------------------------------------------------------------------------|
G|--------------------------------------------------------------------------|
D|--555-333-555-333-55-33--555-333-555-333-55-33----------------------------|
A|--555-333-555-333-55-33--555-333-555-333-55-33----------------------------|
D|--555-333-555-333-55-33--555-333-555-333-55-33----------------------------|

e|--------------------------------------------------------------------------|
B|--------------------------------------------------------------------------|
G|--333-----333-----33------333-----333-----33------------------------------|
D|--333-111-333-111-11-11---333-111-333-111-33-11---------------------------|
A|--111-111-111-111-11-11---111-111-111-111-11-11---------------------------|
D|------111-----111----11-------111-----111----11---------------------------|
 Post chorus/Pre-Verse
After this is some effect but you can play this to compromise
e|--------------------------------------------------------------------------|
B|--------------------------------------------------------------------------|
G|--------------------------------------------------------------------------|
D|--5~--5---5---5------Gradually strum faster (You'll know when to stop-----|
A|--5~--5---5---5---------------if you listen to the song)------------------|
D|--5~--5---5---5-----------------------------------------------------------|

Play the verse part at 1:31
Pre-Chorus 1:41
Chorus 1:58

Bridge. Just play this a bunch of times during the rap.
e|--------------------------------------------------------------------------|
B|--------------------------------------------------------------------------|
G|--------------------------------------------------------------------------|
D|--5-5---------------------------------------------------------------------|
A|--5-5------3h5--1h3-------------------------------------------------------|
E|--5-5--3h5-----------3h5p3p2h3p2------------------------------------------|

After the rap is another chorus.

And then an outro which is played the exact same as the pre-chorus but without the slide from 10.

Thanks for checking this out, send me a message or comment if you feel there are some 
mistakes (probably are, first tab).
Don't forget to rate.
Suggest correction
Give kudos to tab author, rate the tab!
1 2 3 4 5
comments
print report bad tab
guest
You may want to rate the tab now too:
select rating
Please do not post tabs as comments. Select "correction" instead!