Oops, an error
Loading. Please wait.

I Know You Are But What Am I Tab

version 1
version 1

Whole song

521 views 1 this week
no commentswrite comment
1 2 3 4 5
please rate
add to favorites
launch autoscroll
font size
0
reset
how to read this tab
guitar tuner
Autoscroll
slow
fast
+/-
esc
set tempo
stop
Help us to improve Ultimate-Guitar.com Take our survey!
×
Contributor
Difficulty
Tuning
oibigears 428
novice
C# G# C# F# A# D#
hahahaha, i love this song!!!

intro(up till 00:20ish)

bass
Gb|-------------------------------------|
Db|-------------------------------------|
Ab|----5--------------------------------|play 4 times
Db|0-0---6-0-3-6-5-3-5-00h3p0-00h3p0-0h1|

both guitars(00:20 onwards)
Eb|-------------------------------------|
Bb|-------------------------------------|
Gb|----7--------------------------------|
Db|0-0-7-6-0-3-6-5-3-5-00h3p0-00h3p0-0h1|
Ab|0-0-5-6-0-3-6-5-3-5-00h3p0-00h3p0-0h1|play 4 times
Db|0-0---6-0-3-6-5-3-5-00h3p0-00h3p0-0h1|

verse(played 2ce)

both guitars
Eb|-----------------------------------------------------------
Bb|-----------------------------------------------------------
Gb|----7-------------------7-------------------7--------------
Db|0-0-7-6-0-3-6-5-3-5-0-0-7-6-0-3-6-5-3-1-0-0-7-6-0-3-6-5-3-5
Ab|0-0-5-6-0-3-6-5-3-5-0-0-5-6-0-3-6-5-3-1-0-0-5-6-0-3-6-5-3-5
Db|0-0---6-0-3-6-5-3-5-0-0---6-0-3-6-5-3-1-0-0---6-0-3-6-5-3-5

Eb|-----------------|
Bb|-----------------|
Gb|-----------------|
Db|00h3p0-00h3p0-0h1|
Ab|00h3p0-00h3p0-0h1|
Db|00h3p0-00h3p0-0h1|

pre chorus(not sure about the little bit at the end)
Eb|--------------------------------------------------------------------|
Bb|--------------------------------------------------------------------|
Gb|--------------------------------------------------------------------|
Db|00h3p0-00h3p0-0h1-00h3p0-00h3p0-0h1-00h3p0-00h3p0-0h1-00-00-00-0----|
Ab|00h3p0-00h3p0-0h1-00h3p0-00h3p0-0h1-00h3p0-00h3p0-0h1-00-00-00-0h4t0|
Db|00h3p0-00h3p0-0h1-00h3p0-00h3p0-0h1-00h3p0-00h3p0-0h1-00-00-00-0----|

Chorus

rhythm(played 2ce)
Eb|-----------------------------------|
Bb|-----------------------------------|
Gb|77777777----------33333333---------|
Db|77777777-33333333-33333333-00000000|
Ab|55555555-33333333-11111111-00000000|
Db|---------33333333----------00000000|

lead(those are tens and 12's...and so on, if you play it wron, youll know)
Eb|------------------------------------------------------------------|
Bb|------------------------------------------------------------------|
Gb|1212121212121212-1414141414141414-1010101010101010-7-7-7-7-7-7-777|
Db|xxxxxxxxxxxxxxxx-xxxxxxxxxxxxxxxx-xxxxxxxxxxxxxxxx-x-x-x-x-x-x-xxx|
Ab|1010101010101010-1212121212121212-8-8-8-8-8-8-8-8--5-5-5-5-5-5-555|
Db|------------------------------------------------------------------|

Eb|-------------------------------------------------------------------|
Bb|-------------------------------------------------------------------|
Gb|1212121212121212-1414141414141414-1717171717171717-1919191919191919|
Db|xxxxxxxxxxxxxxxx-xxxxxxxxxxxxxxxx-xxxxxxxxxxxxxxxx-xxxxxxxxxxxxxxxx|
Ab|1010101010101010-1212121212121212-1515151515151515-1717171717171717|
Db|-------------------------------------------------------------------|

(repeat verse and chorus)
Eb|--------------|
Bb|--------------|
Gb|--------------|
Db|0~~-----------|
Ab|0~~-----------|
Db|0~~(pickslide)|

Eb|---------------------|
Bb|---------------------|
Gb|---------------------|
Db|0-0-0-0-0-0-1-0-0-0-0| played 4 times
Ab|0-0-0-0-0-0-1-0-0-0-0|
Db|0-0-0-0-0-0-1-0-0-0-0|
pm|^ ^ ^ ^ ^ ^   ^ ^ ^ ^|

Eb|-----------------------|
Bb|-----------------------|
Gb|-----------------------|
Db|0-0-0-0-0-0-1-0-0-0-0~~| played 4 times (on the 4th time, dont let 
Ab|0-0-0-0-0-0-1-0-0-0-0~~| the note ring)
Db|0-0-0-0-0-0-1-0-0-0-0~~|
pm|^ ^ ^ ^ ^ ^   ^ ^ ^    |

Eb|------------|
Bb|------------|
Gb|------------|
Db|00-00-00-0--|
Ab|00-00-00-0t4|
Db|00-00-00-0--|
pm|^^ ^^ ^^ ^  |

(repeat chorus)
Eb|-----------------------------------------------|
Bb|-----------------------------------------------|
Gb|------------------------------------------2b(3)|
Db|0-0-0-0-0-0-1-0-0-0-0-0-0-0-0-0-0-1-0-0-0-2b(3)|
Ab|0-0-0-0-0-0-1-0-0-0-0-0-0-0-0-0-0-1-0-0-0------|
Db|0-0-0-0-0-0-1-0-0-0-0-0-0-0-0-0-0-1-0-0-0------|
pm|^ ^ ^ ^ ^ ^   ^ ^ ^ ^ ^ ^ ^ ^ ^ ^ ^ ^ ^ ^      |

Eb|------------------------------------------------------|
Bb|------------------------------------------------------|
Gb|------------------------------------------------------|
Db|0-0-0-0-0-0-1-0-0-0-0-0-0-0-0-0-0-1-0-0-0-------------|
Ab|0-0-0-0-0-0-1-0-0-0-0-0-0-0-0-0-0-1-0-0-0------------ |
Db|0-0-0-0-0-0-1-0-0-0-0-0-0-0-0-0-0-1-0-0-0(s-pickslide)|
pm|^ ^ ^ ^ ^ ^   ^ ^ ^ ^ ^ ^ ^ ^ ^ ^ ^ ^ ^ ^             |

Eb|-----------------------------------------------|
Bb|-----------------------------------------------|
Gb|------------------------------------------2b(3)|
Db|0-0-0-0-0-0-1-0-0-0-0-0-0-0-0-0-0-1-0-0-0-2b(3)|
Ab|0-0-0-0-0-0-1-0-0-0-0-0-0-0-0-0-0-1-0-0-0------|
Db|0-0-0-0-0-0-1-0-0-0-0-0-0-0-0-0-0-1-0-0-0------|
pm|^ ^ ^ ^ ^ ^   ^ ^ ^ ^ ^ ^ ^ ^ ^ ^ ^ ^ ^ ^      |

Eb|-----------------------------------------------|
Bb|-----------------------------------------------|
Gb|-----------------------------------------------|
Db|0-0-0-0-0-0-1-0-0-0-0-0-0-0-0-0-0-1-0-0-0------|
Ab|0-0-0-0-0-0-1-0-0-0-0-0-0-0-0-0-0-1-0-0-0------|
Db|0-0-0-0-0-0-1-0-0-0-0-0-0-0-0-0-0-1-0-0-0------|
pm|^ ^ ^ ^ ^ ^   ^ ^ ^ ^ ^ ^ ^ ^ ^ ^ ^ ^ ^ ^      |

key
2b(3)=bend the 2nd fret, to sound like the 3rd, then release quickly
s-pickslide=very quick pickslide
0t4=quickly tap the 4th fret then release
comments
We did not receive enough feedback on this tab! Please rate:
print report bad tab
1 2 3 4 5
I want to post or [tab]
guest
You may want to rate the tab now too:
select rating
Please do not post tabs as comments. Select "correction" instead!