Oops, an error
Loading. Please wait.

I Know You Are But What Am I Tab

version 2
version 2

Whole song

528 views 1 this week
no commentswrite comment
1 2 3 4 5
excellent!
x 1
add to favorites
launch autoscroll
font size
0
reset
how to read this tab
guitar tuner
Tab Pro tools
  • play this tab
  • loop segment
  • change instrument
  • show fretboard
  • metronome
Autoscroll
slow
fast
+/-
esc
set tempo
stop
Contributor
Difficulty
Tuning
novice
C# G# C# F# A# D#
----------------------------------------------------------------------------
              I KNOW YOU ARE, BUT WHAT AM I? - The Blackout
----------------------------------------------------------------------------
Tabbed by: 2molarHCl
Email: fonzifieduk@yahoo.co.uk

Tuning: Drop C# [ C# G# C# F# A# D# ]

I think its accurate ;)


Bass
Gb|---------------------------------|
Db|---------------------------------|
Ab|---5-----5-----------------------|play 4 times
Db|0-0--6-00-6-3-5-0-03p03-003p03-01|

Eb|--------------------------------------|
Bb|--------------------------------------|
Gb|----7-------7-------------------------|
Db|0-0-7-6-0-0-7h6-3-5-0-03p03-003p03-0-1|
Ab|0-0-5-6-0-0-5h6-3-5-0-03p03-003p03-0-1|play 4 times
Db|0-0---6-0-0--h6-3-5-0-03p03-003p03-0-1|
pm|        ^ ^                 ^^     ^  |

Verse

Both guitars                                
Eb|---------------------------------------| \
Bb|---------------------------------------| |
Gb|----7-------7-----------7-------7------| |
Db|0-0-7-6-0-0-7h6-3-5-0-0-7-6-0-0-7h6-3-1| |
Ab|0-0-5-6-0-0-5h6-3-5-0-0-5-6-0-0-5h6-3-1| |
Db|0-0---6-0-0--h6-3-5-0-0---6-0-0--h6-3-1| |
pm|        ^ ^                 ^ ^        | |
                                            |play 2 times
Eb|--------------------------------------|  |
Bb|--------------------------------------|  |
Gb|----7-------7-------------------------|  |
Db|0-0-7-6-0-0-7h6-3-5-0-03p03-003p03-0-1|  |
Ab|0-0-5-6-0-0-5h6-3-5-0-03p03-003p03-0-1|  |
Db|0-0---6-0-0--h6-3-5-0-03p03-003p03-0-1|  |
pm|        ^ ^                 ^^     ^  |  /


Pre-chorus
Eb|-------------------------------------------------|
Bb|-------------------------------------------------|
Gb|-------------------------------------------------|
Db|0-03p03-003p03-0-1-0-03p03-003p03-0-1-00-00-00-00|
Ab|0-03p03-003p03-0-1-0-03p03-003p03-0-1-00-00-00-00|
Db|0-03p03-003p03-0-1-0-03p03-003p03-0-1-00-00-00-00|
pm|        ^^     ^           ^^     ^   ^^ ^^ ^^ ^^


Chorus

Rhythm
Eb|-----------------------------------|
Bb|-----------------------------------|
Gb|77777777----------33333333---------|
Db|77777777-33333333-33333333-00000000|play twice
Ab|55555555-33333333-11111111-00000000|
Db|---------33333333----------00000000|

Lead
Eb|------------------------------------------------------------|
Bb|------------------------------------------------------------|
Gb|1212121212121212-1414141414141414-1010101010101010-777777777|
Db|xxxxxxxxxxxxxxxx-xxxxxxxxxxxxxxxx-xxxxxxxxxxxxxxxx-xxxxxxxxx|
Ab|1010101010101010-1212121212121212-8-8-8-8-8-8-8-8--555555555|
Db|------------------------------------------------------------|

Eb|-------------------------------------------------------------------|
Bb|-------------------------------------------------------------------|
Gb|1212121212121212-1414141414141414-1717171717171717-1919191919191919|
Db|xxxxxxxxxxxxxxxx-xxxxxxxxxxxxxxxx-xxxxxxxxxxxxxxxx-xxxxxxxxxxxxxxxx|
Ab|1010101010101010-1212121212121212-1515151515151515-1717171717171717|
Db|-------------------------------------------------------------------|

(Repeat verse and chorus)

Eb|--------------|
Bb|--------------|
Gb|--------------|
Db|0~~-----------|
Ab|0~~-----------|
Db|0~~(pickslide)|

Eb|-------------------|
Bb|-------------------|
Gb|-------------------|
Db|0-0-0-0-3h5-1-0-0-0|play 4 times
Ab|0-0-0-0-3h5-1-0-0-0|
Db|0-0-0-0-3h5-1-0-0-0|
pm|^ ^ ^ ^       ^ ^  |

Eb|--------------------|
Bb|--------------------|
Gb|--------------------|
Db|0-0-0-0-3h5-1-0-0-0~|play 4 times
Ab|0-0-0-0-3h5-1-0-0-0~|(let ring)
Db|0-0-0-0-3h5-1-0-0-0~|
pm|^ ^ ^ ^       ^ ^   |

Eb|-----------|
Bb|-----------|
Gb|-----------|
Db|00-00-00-00|
Ab|00-00-00-00|
Db|00-00-00-00|
pm|^^ ^^ ^^ ^^|

(Repeat chorus)

Eb|-----------------------------------------| \
Bb|-----------------------------------------| |
Gb|---------------------------------------2b| |
Db|0-0-0-0-3h5-1-0-0-0--0-0-0-0-3h5-1-0-0-2b| |
Ab|0-0-0-0-3h5-1-0-0-0--0-0-0-0-3h5-1-0-0---| |
Db|0-0-0-0-3h5-1-0-0-0--0-0-0-0-3h5-1-0-0---| |
pm|^ ^ ^ ^       ^ ^    ^ ^ ^ ^       ^ ^   | |
                                              |play twice
Eb|----------------------------------------|  |
Bb|----------------------------------------|  |
Gb|----------------------------------------|  |
Db|0-0-0-0-3h5-1-0-0-0--0-0-0-0-3h5-1-0-0-0|  |
Ab|0-0-0-0-3h5-1-0-0-0--0-0-0-0-3h5-1-0-0-0|  |
Db|0-0-0-0-3h5-1-0-0-0--0-0-0-0-3h5-1-0-0-0|  |
pm|^ ^ ^ ^       ^ ^    ^ ^ ^ ^       ^ ^  |  /


************************************

| /   slide up
| \   slide down
| h   hammer-on
| p   pull-off
| ~   vibrato
| +   harmonic
| x   Mute note
| b   Bend
| pb  Pre-bend
| br  Bend release
| pbr Pre-bend release
| brb Bend release bend

************************************
comments
We did not receive enough feedback on this tab! Please rate:
print report bad tab
1 2 3 4 5
I want to post or [tab]
guest
You may want to rate the tab now too:
select rating
Please do not post tabs as comments. Select "correction" instead!