Oops, an error
Loading. Please wait.

I Love Myself And I Wanna Live Tab

version 1
version 1

Whole song

2,690 views 1 this week
no commentswrite comment
1 2 3 4 5
excellent!
x 4
add to favorites
launch autoscroll
font size
0
reset
how to read this tab
guitar tuner
Tab Pro tools
  • play this tab
  • loop segment
  • change instrument
  • show fretboard
  • metronome
Autoscroll
slow
fast
+/-
esc
set tempo
stop
Contributor
-------------------------------------------------------------------------------
                             I Love Myself And I Wanna Live - The Blackout
-------------------------------------------------------------------------------
Tabbed by:brokenunder
Email:tears--dont--fall@hotmail.co.uk

Tuning: Drop D

this is one of the best songs off their new album so i thought id tab it out 
because i can. was pretty easy to figure out the only bit that might be wrong is 
the 5p3p0 in the chorus. 

rate and comment :)


Intro/Chorus

e|---------------------------------------------------------------------------|
B|---------------------------------------------------------------------------|
G|---------------------------------------------------------------------------|
D|-5-3-5---1-5p3p0----3-3----------------------------------------------------|
A|-5-------1----------3------------------------------------------------------|
D|-5-------1----------3------------------------------------------------------|

verse
rhythm
e|---------------------------------------------------------------------------|
B|---------------------------------------------------------------------------|
G|---------------------------------------------------------------------------|
D|-55555555555555-1111111-3333333--------------------------------------------|
A|-55555555555555-1111111-3333333--------------------------------------------|
D|-55555555555555-1111111-3333333--------------------------------------------|
  PM--------------------------------------|

lead
e|---------------------------------------------------------------------------|
B|-886688668866-----------1111111111111111-1313131313131313------------------|
G|--------------5-7-5--------------------------------------------------------|
D|--------------------8------------------------------------------------------|
A|---------------------------------------------------------------------------|
D|---------------------------------------------------------------------------|
  PM--------------------------------------------------------------------|
 the lead is 11's not 1's

prechorus
rhythm
e|---------------------------------------------------------------------------|
B|---------------------------------------------------------------------------|
G|---------------------------------------------------------------------------|
D|-10-------8--------55-8~---------------------------------------------------|
A|-10-------8--------55-8~---------------------------------------------------|
D|-10-X14---8-X14----55-8~---------------------------------------------------|

lead
e|---------------------------------------------------------------------------|
B|---------------------------------------------------------------------------|
G|-5588-5588-5588-5588-3377-3377-3377-3377-----------------------------------|
D|-------------------------------------------------------------55-8~---------|
A|-------------------------------------------------------------55-8~---------|
D|-------------------------------------------------------------55-8~---------|

chorus

verse (leads dont come in till after second line)

prechorus 

chorus

bridge
rhythm
e|---------------------------------------------------------------------------|
B|---------------------------------------------------------------------------|
G|---------------------------------------------------------------------------|
D|-10-------8--------55-535--55-358------------------------------------------|
A|-10-------8--------55-535--55-358------------------------------------------|
D|-10-X14---8-X14----55-535--55-358------------------------------------------|

lead
e|---------------------------------------------------------------------------|
B|---------------------------------------------------------------------------|
G|-5588-5588-5588-5588-3377-3377-3377-3377-----------------------------------|
D|----------------------------------------------------------55-535--55-358~--|
A|----------------------------------------------------------55-535--55-358~--|
D|----------------------------------------------------------55-535--55-358~--|

chorus

outro
e|---------------------------------------------------------------------------|
B|---------------------------------------------------------------------------|
G|---------------------------------------------------------------------------|
D|-55-535--55-358-5----------------------------------------------------------|
A|-55-535--55-358-5~---------------------------------------------------------|
D|-55-535--55-358-5~---------------------------------------------------------|


| /  slide up
| \  slide down
| h  hammer-on
| p  pull-off
| ~  vibrato
| +  harmonic
| x  Mute note
===============================================================================
comments
print report bad tab
I want to post or [tab]
guest
You may want to rate the tab now too:
select rating
Please do not post tabs as comments. Select "correction" instead!