Oops, an error
Loading. Please wait.

I Love Myself And I Wanna Live Tab

version 2
version 2

Whole song

200 views 1 this week
no commentswrite comment
1 2 3 4 5
please rate
add to favorites
launch autoscroll
font size
0
reset
how to read this tab
guitar tuner
Tab Pro tools
  • play this tab
  • loop segment
  • change instrument
  • show fretboard
  • metronome
×
Best way to learn
"I Love Myself And I Wanna Live"
Autoscroll
slow
fast
+/-
esc
set tempo
stop
Contributor
Difficulty
Tuning
intermediate
D A D G B E
This is my 1st time submitting anything so don't be too quick to criticise please. I 
I got it pretty accurate anyway. :]
You can email me if you want but I think I got just about everything in it

Main Riff/Intro

(Play the Lead Guitar part twice slightly muted and quietly then for the next 2 times 
it out with a more 'fuller' sound)

Main Riff/Intro (Lead)

e|-----------------|-------------------||
B|-----------------|-------------------||
G|-----------------|------------------o|| X 4
D|-----3---5-5-0-1-|-3-----3-3-3p0----o||
A|-----------5-0-1-|---3p1-3-3---------||
D|-5-----5---5-0-1-|-------3-3---------||


Main Riff/Intro (Rhythm)

e|----------|----------|----------|-----X\---|
B|----------|----------|----------|-----X\---|
G|----------|----------|----------|-----X\---| then Lead riff X 2
D|----------|----------|----------|----------|
A|----------|----------|----------|----------|
D|----------|----------|----------|----------|

                                        Pick Slide


Verse (Lead)

e|-------------|----------------|--------------------------|--------------------|
B|-88-66-88-66-|-88-66----------|--11,11,11,11,11,11,11,11-|-1313131313131313---|
G|-77-77-77-77-|-77-77-5-7-5----|--8--8--8--8--8--8--8--8--|-1010101010101010---| X 4
D|-------------|-------------8--|--------------------------|--------------------|
A|-------------|----------------|--------------------------|--------------------|
D|-------------|----------------|--------------------------|--------------------|

This comes in straight away and it is really quiet
(The commas are there just to show that its 11's your playing)

Verse (Rhythm)

e|-----------------|-----------------|-----------------|-----------------|
B|-----------------|-----------------|-----------------|-----------------|
G|-----------------|-----------------|-----------------|-----------------| X 4
D|-5-5-5-5-5-5-5-5-|-5-5-5-5-5-5-5-5-|-1-1-1-1-1-1-1-1-|-3-3-3-3-3-3-3-3-|
A|-5-5-5-5-5-5-5-5-|-5-5-5-5-5-5-5-5-|-1-1-1-1-1-1-1-1-|-3-3-3-3-3-3-3-3-|
D|-5-5-5-5-5-5-5-5-|-5-5-5-5-5-5-5-5-|-1-1-1-1-1-1-1-1-|-3-3-3-3-3-3-3-3-|

 PM----------------------------------------------------------------------|


Pre-Chorus (Lead)                                         Pre-Chorus Part 2

e|-------------------------------------------||-------------------------------|
B|---44---44---44---44---33---33---33---33---||-------------------------------|
G|-55---55---55---55---33---33---33---33-----||-------------------------------|
D|-------------------------------------------||-5-0-0-5-0-0--3----------------|
A|-------------------------------------------||-5-0-0-5-0-0--1----------------|
D|-------------------------------------------||-5-0-0-5-0-0-------------------|

                                                PM---|PM---|

Pre-Chorus (Rhythm)                                       Pre-Chorus Part 2

e|-------------------------------------------||-------------------------------|
B|-------------------------------------------||-------------------------------|
G|-------------------------------------------||-------------------------------|
D|--5-5-5-5-5-5-5-5--3-3-3-3-3-3-3-3---------||-5-0-0-5-0-0--3----------------|
A|--3-3-3-3-3-3-3-3--1-1-1-1-1-1-1-1---------||-5-0-0-5-0-0--1----------------|
D|-------------------------------------------||-5-0-0-5-0-0-------------------|

                                                PM---|PM---|

(The G chord is not meant to be palm muted in the second part of the pre-chorus by the 
(thats the '5' chord incase you didn't know your chords))


Chorus

e|---------------------------------|--------------------------------------||
B|---------------------------------|--------------------------------------||
G|---------------------------------|-------------------------------------o|| X 2
D|-----3---5-5-0-1--3-----3-3-3p0--|-------3---5-5-0-1--3-----3-3-3------o||
A|-----------5-0-1----3p1-3-3------|-------------5-0-1----3p1-3-3---------||
D|-5-----5---5-0-1--------3-3------|---5-----5---5-0-1--------3-3---------||

(As far as I can tell I think that both guitars play this when it comes to the chorus 
if you want to play chords it works out just fine)

Here are the chords for the chorus

e|-----------------|-----------------|
B|-----------------|-----------------|
G|-----------------|-----------------| X 4
D|-5-5-5-5-5-5-5-5-|-1-1-1-1-3-3-3-3-|
A|-5-5-5-5-5-5-5-5-|-1-1-1-1-3-3-3-3-|
D|-5-5-5-5-5-5-5-5-|-1-1-1-1-3-3-3-3-|

Now it's back to the Verse.
(The rhythm guitar is just the same however the lead guitar is slightly different, you 
out the first 8 bars then you come in and play the lead part twice)


Then it's the Pre-chorus + Pre-chorus 2 for both guitars


Then back to the Chorus


...and then the Bridge

(basically pre-chorus mixed with new rhythm part)

Bridge (Lead)

e|----------------------------------|------------------------------------||
B|---44--44--44--44--33--33--33--33-|------------------------------------||
G|-55--55--55--55--33--33--33--33---|-----------------------------------o|| X 2
D|----------------------------------|--5---5--X3-5--5---5--3-5----------o||
A|----------------------------------|--5---5--X3-5--5---5--3-5-3b(0.25)--||
D|----------------------------------|--5---5--X3-5--5---5--3-5-----------||

(The (0.25) is just a small quarter bend)


Bridge (Rhythm)

e|-------------------------------------|---------------------------------||
B|-------------------------------------|---------------------------------||
G|-------------------------------------|----------------------------5---o|| X 2
D|--5-5-5-5-5-5-5-5--3-3-3-3-3-3-3-3---|---5---5--X3-5--5---5--3-5--5---o||
A|--3-3-3-3-3-3-3-3--1-1-1-1-1-1-1-1---|---5---5--X3-5--5---5--3-5--3----||
D|-------------------------------------|---5---5--X3-5--5---5--3-5-------||

(the second part is almost the same as the Lead Guitar's but to round it off 
better play a C bar chord)


Now Back to Intro

(Playing only the quiet muted part for the 1st 4 bars)


Then bang into the Chorus

and then the Outro

Outro (Lead)

e|-------------------------------------------||
B|-------------------------------------------||
G|---------------------------3b5(p)---o|| X 4||
D|--5---5--X3-5--5---5--3-5----------o-------||
A|--5---5--X3-5--5---5--3-5------------------||
D|--5---5--X3-5--5---5--3-5------------------||

the (p) is a pinched harmonic :)

Outro (Rhythm)

e|---------------------------------||
B|---------------------------------||
G|----------------------------5---o|| X 2
D|---5---5--X3-5--5---5--3-5--5---o||
A|---5---5--X3-5--5---5--3-5--3----||
D|---5---5--X3-5--5---5--3-5-------||

Taa Daa!

Enjoy :)


Key

|  X\  Pick slide
|   \  Slide down
|   p  Pull-off
|  (p) Pinched Harmonic
|   X  Mute note
comments
We did not receive enough feedback on this tab! Please rate:
print report bad tab
1 2 3 4 5
I want to post or [tab]
guest
You may want to rate the tab now too:
select rating
Please do not post tabs as comments. Select "correction" instead!