Oops, an error
Loading. Please wait.

It High Tide Baby Tab

674 views 1 this week
2 commentsread comments
1 2 3 4 5
2 more votes to show rating
add to favorites
launch autoscroll
font size
0
reset
how to read this tab
guitar tuner
Autoscroll
slow
fast
+/-
esc
set tempo
stop
Help us to improve Ultimate-Guitar.com Take our survey!
×
Author
Difficulty
Tuning
novice
D A D G B E
Tuning: DROP D

Opening:

e|-----3----5~------3----5~-----3----5~------3---5~----5----7~---------|
b|-33----------33-----------33----------55---------55------------------|
g|---------------------------------------------------------------------|
d|---------------------------------------------------------------------|
a|---------------------------------------------------------------------|
d|---------------------------------------------------------------------|

e|------3---5~--3--3h5p3--------------------------------------------------|
b|--33--------------------------------------------------------------------|
g|-----------------------------------------------------------X2-----------|
d|------------------------------------------------------------------------|
a|------------------------------------------------------------------------|
d|------------------------------------------------------------------------|

Verse:

e|----------------------------------------|
b|--------------333---777---333-----------|
g|--------------333---777---333-----------|
d|----333-----111---555---111-------------|
a|----333---------------------------------|
d|----333---------------------------------|

Chorus:

e|----------------------------------------|
b|--------------333---777---333-----------|
g|--------------333---777---333-----------|
d|----333-----111---555---111-------------|
a|----333---------------------------------|
d|----333---------------------------------|

Verse 2:

e|----------------------------------------|
b|--------------333---777---333-----------|
g|--------------333---777---333-----------|
d|----333-----111---555---111-------------|
a|----333---------------------------------|
d|----333---------------------------------|

Chorus:

e|----------------------------------------|
b|--------------333---777---333-----------|
g|--------------333---777---333-----------|
d|----333-----111---555---111-------------|
a|----333---------------------------------|
d|----333---------------------------------|

Interlude:

e|--------------------------------------------------------------|
b|--------------------------------------------------------------|
g|--5~----------------------------------------------------------|
d|--5~----------------------------------------------------------|
a|--3~----------------------------------------------------------|
d|--------------------------------------------------------------|


e|------------------------------------------------------------------|
b|------------------------------------------------------------------|
g|---5/7-7/9-7--9--7---5/7-7/9-9-7--11-----5/7-7/9-7--9-7-----------|
d|------------------------------------------------------------------|
a|------------------------------------------------------------------|
d|------------------------------------------------------------------|

e|------------------------------------------------------|
b|---------------------333----------777----------333----|
g|---------------------333----------777----------333----|
d|----333------------111----------555----------111------|
a|----333-----------------------------------------------|
d|----333-----------------------------------------------|

Chorus:

e|----------------------------------------|
b|--------------333---777---333-----------|
g|--------------333---777---333-----------|
d|----333-----111---555---111-------------|
a|----333---------------------------------|
d|----333---------------------------------|

Outro:

e|-------------|
b|-------------|
g|---555-------|
d|---555-------|    Keep on strumming over and over
a|---333-------|
d|-------------|

e|-------------|
b|-------------|
g|---5~~
d|---5~~     end it with that over and over.
a|---3~~
d|-----------

good luck its prety easy >.<
Suggest correction
Give kudos to tab author, rate the tab!
1 2 3 4 5
comments
print report bad tab
2 comments total.
0 reply
trivium99 803 Nov 11, 2007 11:47 AM

good that sum1 tabbed it but its off . sorry

0 reply
Destamoon 92 Dec 26, 2008 04:30 AM

wrong key dude

guest
You may want to rate the tab now too:
select rating
Wanna post a correction for this tab? Suggest correction