Oops, an error
Loading. Please wait.

Its High Tide Baby Tab

version 1
version 1

Whole song

Interactive

4,541 views 1 this week
2 commentsread comments
1 2 3 4 5
accurate
x 10
add to favorites
launch autoscroll
font size
0
reset
how to read this tab
guitar tuner
Tab Pro tools
  • play this tab
  • loop segment
  • change instrument
  • show fretboard
  • metronome
×
Best way to learn
"Its High Tide Baby"
Autoscroll
slow
fast
+/-
esc
set tempo
stop
Contributor
----------------------------------------------------------------------------
                             Its High Tide Baby-The Blackout
----------------------------------------------------------------------------
Tabbed by:brokenunder
Email:tears--dont--fall@hotmail.co.uk

Tuning: Drop D

I noiced how the high tide baby tabs were off a bit so i decided to tab it myself
the blackout play in drop d but you can play this in standard
this is my first tab so dont be too harsh on me =]

Intro

Lead guitar
e|----2-4------2-4|-----2-4------2-4------4-6------4p2h4----------------|
B|2-2------2-2----|-2-2------4-4------4-4------2-2----------------------|
G|----------------|-----------------------------------------------------|
D|----------------|-----------------------------------------------------| X2
A|----------------|-----------------------------------------------------|
D|----------------|-----------------------------------------------------|
   ^intro only^

Rhythm guitar
e|----------------------------------------------------------------------|
B|----------------------------------------------------------------------|
G|---------------------------4444-----8888-----6666---------------------|
D|------------------4444-----4444-----8888-----6666---------------------| X2
A|------------------4444-----2222-----6666-----4444---------------------|
D|------------------4444------------------------------------------------|

Verse

Lead guitar
e|-----2-4------2-4------4-6------4p2h4---------------------------------|
B|-2-2------4-4------4-4------2-2---------------------------------------|
G|----------------------------------------------------------------------|
D|----------------------------------------------------------------------| X2
A|----------------------------------------------------------------------|
D|----------------------------------------------------------------------|
   ^comes in half way through the verse

Rhythm guitar
e|----------------------------------------------------------------------|
B|----------------------------------------------------------------------|
G|----------------------------------------------------------------------|
D|---------------------------------4h6-6h8-8h9-9h11---------------------|
A|----------------------------------------------------------------------|
D|----------------------------------------------------------------------|

Chorus

Lead guitar
e|-----2-4------2-4------4-6------4p2h4---------------------------------|
B|-2-2------4-4------4-4------2-2---------------------------------------|
G|----------------------------------------------------------------------|
D|----------------------------------------------------------------------| X2
A|----------------------------------------------------------------------|
D|----------------------------------------------------------------------|

Rhythm guitar
e|----------------------------------------------------------------------|
B|----------------------------------------------------------------------|
G|---------------------------2222-----8888-----6666---------------------|
D|------------------4444-----2222-----8888-----6666---------------------| X2
A|------------------4444-----0000-----6666-----4444---------------------|
D|------------------4444------------------------------------------------|

Interlude

Lead guitar
e|---------------------------------------------------------------------|
B|---------------------------------------------------------------------|
G|---------------------------------------------------------------------|
D|------4h6-6--4h6-/8--4h6-/9-8----4h6-6--4h6-/8--4h6-/9-8/11----------| X2
A|---------------------------------------------------------------------|
D|---------------------------------------------------------------------|

Rhythm
e|---------------------------------------------------------------------|
B|---------------------------------------------------------------------|
G|---------------------------------------------------------------------|
D|------4~-------------------------4~----------------------------------|
A|------4~-------------------------4~----------------------------------|
D|------4~-------------------------4~----------------------------------|



The order of the song goes

Intro/chorus
Verse
Chorus
Verse
Chorus
Interlude
Chorus






  

| /  slide up
| \  slide down
| h  hammer-on
| p  pull-off
| ~  vibrato
| +  harmonic
| x  Mute note
============================================================================
comments
print report bad tab
2 comments total.
0 reply
stead10 wrote on January 24 2008, 11:51 am

Hey dude, nice tab, one thing I think that the following sounds better for the intro:
e----2----4--
B--2---2-----

0 reply
XtractionProces wrote on November 4 2008, 09:44 am

Very precise. Can be played in standard though...

I want to post or [tab]
guest
You may want to rate the tab now too:
select rating
Please do not post tabs as comments. Select "correction" instead!