Oops, an error
Loading. Please wait.

Its High Tide Baby Tab

version 2
version 2

Whole song

Interactive

12,909 views 1 this week
10 commentsread comments
1 2 3 4 5
excellent!
x 9
add to favorites
launch autoscroll
font size
0
reset
how to read this tab
guitar tuner
Autoscroll
slow
fast
+/-
esc
set tempo
stop
Help us to improve Ultimate-Guitar.com Take our survey!
×
Author
Difficulty
novice
-------------------------------------------------------------------------------
It's high tide baby � The Blackout
-------------------------------------------------------------------------------
Tabbed by:James L       

Please comment and rate!

Tuning:standard (EADGBe)

INTRO guitar 1
e|-----------------------|
B|---------9-----------9-|
G|---11--11------11--11--|
D|-----11----------11----|
A|-----------------------|
E|-----------------------|

e|-------------------------------------------------|
B|---------9-------9--------11---------------------|
G|---11--11-----11--11---11---11--11--13-11-10-----|
D|-----11------9--9----13-13---13-------------11---|
A|-------------------------------------------------|
E|-------------------------------------------------|

INTRO guitar 2
e|----------------------------------------------|
B|----------------------------------------------|
G|-------------4-------8----------6-------------|
D|---4---------4-------8----------6-------------|
A|---4---------2-------6----------4-------------|
E|---2------------------------------------------|

VERSE guitar 1 

e|----------------------------|
B|----------------------------|
G|----------------------------|
D|----xx3h4-4h6-6h8-8h9-------|
A|----------------------------|
E|----------------------------|

VERSE guitar 1 
e|----------------------------|
B|----------------------------|
G|----------------------------|
D|----xx3h4-4h6-6h8-8h9-------|
A|----------------------------|
E|----------------------------|

VERSE guitar 2
e|-------------------------------------------------|
B|---------9-------9--------11---------------------|
G|---11--11-----11--11---11---11--11--13-11-10-----|
D|-----11------9--9----13-13---13-----------11-----|
A|-------------------------------------------------|
E|-------------------------------------------------|

VERSE guitar 1 
e|----------------------------|
B|----------------------------|
G|----------------------------|
D|----xx3h4-4h6-6h8-8h9-------|
A|----------------------------|
E|----------------------------|

VERSE guitar 2
e|----------------------------------------------|
B|---------9-------9--------9-------------------|
G|---11--11-----11--11---9---9--9--13-11-10-----|
D|-----11------9--9----13-13--13-----------11---|
A|----------------------------------------------|
E|----------------------------------------------|

VERSE guitar 1 
e|----------------------------|
B|----------------------------|
G|----------------------------|
D|----xx3h4-4h6-6h8-8h9-------|
A|----------------------------|
E|----------------------------|

CHORUS guitar 1
e|----------------------------------------------|
B|----------------------------------------------|
G|-------------4-------8----------6-------------|
D|---4---------4-------8----------6-------------|x2
A|---4---------2-------6----------4-------------|
E|---2------------------------------------------|

CHORUS guitar 2
e|----------------------------------------------|
B|---------9-------9--------9-------------------|
G|---11--11-----11--11---9---9--9--13-11-10-----|
D|-----11------9--9----13-13--13-----------11---|x2
A|----------------------------------------------|
E|----------------------------------------------|

repeat verse and chorus
BRIDGE guitar 1
e|----------------------------------------------------------------------------|
B|----------------------------------------------------------------------------|
G|----------------------------------------------------------------------------|
D|---4----------------------4---------------------4---------------------------|
A|---4----------------------4---------------------4---------------------------|
E|---2----------------------2---------------------2---------------------------|

BRIDGE guitar 2
e|----------------------------|-----------------------------------------------|
B|----------------------------|-----------------------------------------------|
G|----------------------------|-----------------------------11----------------|
D|------------------9-8-------|---------------------9-8--/11------------------|
A|----4---4/6---4/6-----------|----4----4/6----4/6----------------------------|
E|----------------------------|-----------------------------------------------|
~~ ~~~ ~~ ~~~
e|----------------------------|
B|----------------------------|
G|----------------------------|
D|------------------9-8-------|
A|----4---4/6---4/6-----------|
E|----------------------------|

Repeat chorus to end. 

Order of song:
Intro/chorus
Verse
Chorus
Verse
Chorus
Bridge/interlude
Chorus

| / slide up
| \ slide down
| h hammer-on
| p pull-off
| ~ vibrato
| + harmonic
| x Mute note
===============================================================================
Suggest correction
comments
print report bad tab
10 comments total. Showing first comments.
0 reply
matt_is_cool 10 wrote on August 31 2008, 07:20 am

awesome tab 5*

0 reply
Destamoon 92 wrote on December 26 2008, 04:19 am

The verse should be

e|----------------------------|
B|----------------------------|
G|----------------------------|
D|----xx3h4-4h6-6h8-8h9-------|
A|----------------------------|
E|----------------------------|

0 reply
Destamoon 92 wrote on December 26 2008, 04:21 am

The verse should be

e|----------------------------|
B|----------------------------|
G|----------------------------|
D|----xx3h4-4h6-6h8-8h9-------|
A|----------------------------|
E|----------------------------|

guest
You may want to rate the tab now too:
select rating
Wanna post a correction for this tab? Suggest correction