Oops, an error
Loading. Please wait.

Its High Tide Baby Tab

version 3
version 3

Whole song

Interactive

544 views 1 this week
1 commentread comment
1 2 3 4 5
worth learning
x 1
add to favorites
launch autoscroll
font size
0
reset
how to read this tab
guitar tuner
Tab Pro tools
  • play this tab
  • loop segment
  • change instrument
  • show fretboard
  • metronome
Autoscroll
slow
fast
+/-
esc
set tempo
stop
Contributor
-------------------------------------------------------------------------------
                     It’s High Tide Baby – The Blackout
-------------------------------------------------------------------------------



Tabbed by: Destamoon
Email: ethans_apprentice@hotmail.com

Tuning: Drop D



Intro Part 1 Lead

e|----------------------------------|
B|----------9-----------------------|
G|-----11---------------------------|
D|-----------------x2---------------|
A|---9----9-------------------------|
D|----------------------------------|


Intro Part 2 Lead

e|-----------------------------------------------------------------------|
B|----------9-------------------------9----------------------------------|
G|-----11-----11---11------------11-----11---11--------------------------|
D|-----------------------------9----9------9-----------------------------|
A|---9----9------9-------------------------------------------------------|
D|-----------------------------------------------------------------------|

e|-----------------------------------------------------------------------|
B|------------11------------------------14-------------------------------|
G|------11-------11----11---------11-------11----11----------------------|
D|---13----13-------13---------11----11-------11-------------------------|
A|-----------------------------------------------------------------------|
D|-----------------------------------------------------------------------|


Into Part 2 Rhythm

e|------------------------------------------------------------|
B|------------------------------------------------------------|
G|---------4----8----6----------------------------------------|
D|----4----4----8----6----------------------------------------|
A|----4----2----6----4----------------------------------------|
D|----4-------------------------------------------------------|



Verse Keyboard (Pads)

e|------------------------------------------------------------|
B|------------------------------------------------------------|
G|---------4----8----6----------------------------------------|
D|----4----4----8----6----------------------------------------|
A|----4----2----6----4----------------------------------------|
D|----4-------------------------------------------------------|



Verse Lead

e|-------------------------------------------------------------|
B|-------------------------------------------------------------|
G|-------------------------------------------------------------|
D|----3h4—4h6—6h8—8h9------------------------------------------|
A|-------------------------------------------------------------|
D|-------------------------------------------------------------|



Verse Rhythm


e|-----------------------------------------------------------------------|
B|----------9-------------------------9----------------------------------|
G|-----11-----11---11------------11-----11---11--------------------------|
D|-----------------------------9----9------9-----------------------------|
A|---9----9------9-------------------------------------------------------|
D|-----------------------------------------------------------------------|

e|-----------------------------------------------------------------------|
B|------------9-------------------------9--------------------------------|
G|------11-------11----11---------11-------11----11----------------------|
D|---13----13-------13---------11----11-------11-------------------------|
A|-----------------------------------------------------------------------|
D|-----------------------------------------------------------------------|


Chorus Both Guitars

e|------------------------------------------------------------|
B|------------------------------------------------------------|
G|---------4----8----6----------------------------------------|
D|----4----4----8----6----------------------------------------|
A|----4----2----6----4----------------------------------------|
D|----4-------------------------------------------------------|



Bridge Lead

e|---------------------------------------------------------------------------|
B|---------------------------------------------------------------------------|
G|---------------------------------------------------------------------------|
D|----3h4-6----4h6-8----6h8-9-9-9-8-8-8-8------------------------------------|
A|---------------------------------------------------------------------------|
D|---------------------------------------------------------------------------|

e|---------------------------------------------------------------------------|
B|---------------------------------------------------------------------------|
G|---------------------------------------------------------------------------|
D|----3h4-6----4h6-8----6h8-9-9-9-8-8-8-11-11-11-11--------------------------|
A|---------------------------------------------------------------------------|
D|---------------------------------------------------------------------------|



Bridge Rhythm

e|---------------------------------------------------------------------------|
B|---------------------------------------------------------------------------|
G|---------------------------------------------------------------------------|
D|-----4~--------------------------------------------------------------------|
A|-----4~--------------------------------------------------------------------|
D|-----4~--------------------------------------------------------------------|


Outro – After chorus end on

e|---------------------------------------------------------------------------|
B|-----7~---7~----7~---------------------------------------------------------|
G|-----6~---6~----6~---------------------------------------------------------|
D|-----4~---4~----4~---------------------------------------------------------|
A|-----4~---4~----4~---------------------------------------------------------|
D|-----4~---4~----4~---------------------------------------------------------|






Now that wasn’t too hard was it... 
Go watch the video, Ian Watkins from Lostprophets is in it if you didn’t know already.





~Destamoon

| /  slide up
| \  slide down
| h  hammer-on
| p  pull-off
| ~  vibrato
| +  harmonic
| x  Mute note



===============================================================================

comments
We did not receive enough feedback on this tab! Please rate:
print report bad tab
1 2 3 4 5
1 comment total.
0 reply
Destamoon wrote on February 5 2009, 07:41 pm

Rate please

I want to post or [tab]
guest
You may want to rate the tab now too:
select rating
Please do not post tabs as comments. Select "correction" instead!