Oops, an error
Loading. Please wait.

Koruton Tab

version 1
version 1

Whole song

Interactive

564 views 1 this week
1 commentread comment
1 2 3 4 5
please rate
add to favorites
launch autoscroll
font size
0
reset
how to read this tab
guitar tuner
Autoscroll
slow
fast
+/-
esc
set tempo
stop
Help us to improve Ultimate-Guitar.com Take our survey!
×
Contributor
Difficulty
hapcimano 188
intermediate
Black-Out: Körúton (original version)
Website: http://www.black-out.hu


Intro:
A C#m A C#m

 A           C#m
Néhány esti fény...
   A       C#m
A körúton hideg szél 
 A          C#m
tépi az ágakat,
    A                C#m  (A)
Egy üveg hang hozzám ér.

    C#m         A            C#m             A
Én bízom benne majd, hogy a hajnali fénnyel jössz
     C#m         A           C#m           
És csendben átkarolsz. Majd halkan
   E       C#m     B
Elmondod, hova viszel.

            C#m
Várom, hogy eljössz,
     G#m    A
Itt vagyok rég
    E        A
Megfogom a szárnyad,
 E     B
Minek fék
         C#m
Veled az úton
 G#m      A
Ragyog a fény,
    E        A
Én fogom a szárnyad
  E    B
Emelj még!


Néhány halk zörej (ez a kezemről a lánc)
A körúton a földre hull...
Az arcom hófehér, de szemeimben Te ragyogsz.
Én bízom benne majd, hogy a hajnali fény majd hoz...
...és csendben hozzám érsz
Majd halkan elmondod hova viszel!

(refrén)

(szóló)
C#m G#m A E
C#m A E B
C#m G#m A E
C#m A E B


              E  S   S E  E   E  S  S  E  E     E  S   S  E  Q.      S  S  S S  
E||-------|----------------------------------|---------------------------------|
B||-------|------------9---------------------|---------------------------------|
G||-------|--/8--L-8g9----9S--8--8h-9p-8-----|---------------------------------|
D||-------|-------------------------------9--|--L--9h-11p-9--------------------|
A||-------|----------------------------------|---------------7~------6h-7p-6---|
E||-------|----------------------------------|-------------------------------7-|


  E.   E  S Q    E  Q        E  S  S  Q     S   S  S  S S  S  E    
--------------------------|---------------------------------------|
--------------------------|---------------------------------------|
--------------------------|---------------------------------------|
-------6--L-7----6--------|---------------------------------------|
--------------------7~----|--L--------------9h-11p-9S-7-----------|
--9~----------------------|-----7h-9p-7~----------------9p-7h-9~--|


  E   S E  E.   E.  E  E.     E   S E   E  S  E.  E.  E     
---------------------------|-------------------------------|
-----------9---10---9------|-----------12----12---9--------|
--------9--------------9---|--L-----9------9----------8br--|
-----11--------------------|-----11------------------------|
---------------------------|-------------------------------|
--L------------------------|-------------------------------|


  E  S  E  E.   E  E  E   E      E   E  E  E  E  E  E   E   
-----------------------------|-----------------------------|
-----------9---10--9---------|----------9-----------7--10--|
--L-------------------9------|-------------9-----8---------|
-----9-11----------------11--|----------------9------------|
-----------------------------|------11---------------------|
-----------------------------|--12-------------------------|


  Q    S  S  S  S S  S  S  S Q        Q    H.             
--7--------------------------------|--------------------||
--7--------------------------------|--------------------||
-------8h-9p-8h-9-8h-9p-8h-9-8~----|--L-----------------||
-----------------------------------|--------------------||
-----------------------------------|--------------------||
-----------------------------------|--------------------||

(refrén) x2

A C#m A C#m
A C#m A C#m

A C#m



--
Készítette:
Keresztury Balazs
quizprg (kukac) fw.hu
Suggest correction new What's this?
You can suggest a correction to this tab. Community and Mods will review your correction and vote to approve or reject it.
comments
We did not receive enough feedback on this tab! Please rate:
print report bad tab
1 2 3 4 5
1 comment total.
0 reply
Oli13Bishop 182 wrote on February 22 2008, 09:32 am

i'm not sure, buti don't any song by the blackout called krouton, well at least by the blackout that made the beijing cocktail and i'm a riot. there must be some mistake here cos there's a pro version of this too and there's another song that i don't recognise called ragazio or something.

sorry i can't comment on the song lol

guest
You may want to rate the tab now too:
select rating
Please do not post tabs as comments. Select "correction" instead!