Oops, an error
Loading. Please wait.

Never By Your Side Tab

2,370 views 9 this week
1 commentread comment
1 2 3 4 5
excellent!
x 3
add to favorites
launch autoscroll
font size
0
reset
how to read this tab
guitar tuner
Tab Pro tools
  • play this tab
  • loop segment
  • change instrument
  • show fretboard
  • metronome
Autoscroll
slow
fast
+/-
esc
set tempo
stop
Contributor
Difficulty
Tuning
novice
C G C F A D
-----------------------------------------------------------------------------
                    Never By Your Side - The Blackout
-----------------------------------------------------------------------------

Favourite song off this album, pretty simple really. I can't hear the lead well
enough to work out so it's not in here. It's only a minor part anyway. This 
should be right (it sounds right to me).

Tuning: Drop C

Intro pt 1
|---------------------------------------------|    |----|
|---------------------------------------------|    |----|
|---------------------------------------------|    |-9~-| little lead part
|-2--2-2--2~----2--2-2--2---------------------| x4 |----| tremelo picked
|-2--2-2--2~----2--2-2--2--*mute strumming*---|    |----| and bent slightly
|-2--2-2--2~----2--2-2--2---------------------|    |----|                    

Intro pt 2
|------------------------------------------------|
|------------------------------------------------|
|------------7-7-7-------------------7-7-7-------|
|-2--2-2--2--7-7-7--5h7---2--2-2--2--7-7-7--5-5--|
|-2--2-2--2--5-5-5--5h7---2--2-2--2--5-5-5--5-5--|
|-2--2-2--2 --------5h7---2--2-2--2---------5-5--|

|--------------------------------------|
|--------------------------------------|
|------------7-7-7---------------------|
|-2--2-2--2--7-7-7--5h7--2--2-2--2--0--|
|-2--2-2--2--5-5-5--5h7--2--2-2--2--0--|
|-2--2-2--2---------5h7--2--2-2--2--0--|

Verse
"I hope to hell that you've thought about what you've done..."
|-------------------------------------------------------|
|-------------------------------------------------------|
|-------------------------------------------------------|
|-------------------------------------------------------|
|-----------*mute strumming*-----------*mute strumming*-|
|-2-0-2-5-2------------------2-0-2-5-2------------------|

|-----------------------------------------------|
|-----------------------------------------------|
|-----------------------------------------------|
|-----------------------------------------------|
|-------5---*mute strumming*-------5----5-5-5h7-|
|-7-5-7---7------------------7-5-7---7--5-5-5h7-|

Pre-chorus
"It seems too far for us to go..."
|---------------------|
|---------------------|
|-5-----2-----5-----7-|
|-5-----2-----5-----7-|
|-3-----0-----3-----5-|
|---------------------|
The rhythm isn't hard to work out yourself

Chorus
"What if I told you to read between the lines..."
|---------------------|
|---------------------|
|-9-----------7-----6-|
|-9-----5-----7-----7-|
|-7-----5-----5-----4-|
|-------5-------------|

Pre-Verse
|--------------------------------------|
|--------------------------------------|
|------------7-7-7---------------------|
|-2--2-2--2--7-7-7--5h7--2--2-2--2--0--|
|-2--2-2--2--5-5-5--5h7--2--2-2--2--0--|
|-2--2-2--2---------5h7--2--2-2--2--0--|

Verse
"Forgive me god for everything I've become"
|-------------------------------------------------------|
|-------------------------------------------------------|
|-------------------------------------------------------|
|-------------------------------------------------------|
|-----------*mute strumming*-----------*mute strumming*-|
|-2-0-2-5-2------------------2-0-2-5-2------------------|

|-----------------------------------------------|
|-----------------------------------------------|
|-----------------------------------------------|
|-----------------------------------------------|
|-------5---*mute strumming*-------5----5-5-5h7-|
|-7-5-7---7------------------7-5-7---7--5-5-5h7-|

There's a cool harminic fill on the mute stums as well this time but I
can't pin them down right now. I'll update if I get them.

Pre-chorus
"It seems too far for us to go..."
|---------------------|
|---------------------|
|-5-----2-----5-----7-|
|-5-----2-----5-----7-|
|-3-----0-----3-----5-|
|---------------------|
The rhythm isn't hard to work out yourself

Chorus
"What if I told you to read between the lines..."
|---------------------|
|---------------------|
|-9-----------7-----6-|
|-9-----5-----7-----7-|
|-7-----5-----5-----4-|
|-------5-------------|

Breakdown
"You were never real..."
|-------------|    |-------------|
|-------------|    |-------------|
|-----7-------|    |-----5-------|
|-2-0-5-5-7-5-| x3 |-2-0-5-3-5-3-|
|-2-0-5-5-7-5-|    |-2-0-3-3-5-3-|
|-2-0---5-7-5-|    | 2-0---3-5-3-|
Second time round one guitar chucks some pinches up instead of the C and Ab
chords. Mess around and find some that work for you. I think they're on the
5th string.

Leading back to the Chorus
|---------------------------------------------------------------------------|
|---------------------------------------------------------------------------|
|--------------7------6-6-6-6-6-6-6-6-6-6-6---------------------------------|
|-2-----5------7------7-7-7-7-7-7-7-7-7-7-7---------------------------------|
|-2-----5------5------4-4-4-4-4-4-4-4-4-4-4---------------------------------|
|-2-----5-------------------------------------------------------------------|
                        . .   . .     \-3-/
Chorus
"What if I told you to read between the lines..."
|---------------------|
|---------------------|
|-9-----------7-----6-|
|-9-----5-----7-----7-|
|-7-----5-----5-----4-|
|-------5-------------|

Outro
|--------------|    |----|-----------------------|    |-------|
|--------------|    |----|-----------------------|    |-------|
|--------------|    |----|---------------7-------|    |-------|
|-2-2-2--0-0-0-| x4 |----|-2-2-2--0-0-0--7-5h7-7-| x4 |-2-2-2-|
|-2-2-2--0-0-0-|    |-<2>|-2-2-2--0-0-0--5-5h7-7-|    |-2-2-2-|
|-2-2-2--0-0-0-|    |----|-2-2-2--0-0-0----5h7-7-|    |-2-2-2-|


************************************

| /   slide up
| \   slide down
| h   hammer-on
| p   pull-off
| ~   vibrato
| +   harmonic
| x   Mute note
| b   Bend
| pb  Pre-bend
| br  Bend release
| pbr Pre-bend release
| brb Bend release bend
| .  palm mute
| <2> pinch harmonic
| \-3-/ triplet

************************************
comments
We did not receive enough feedback on this tab! Please rate:
print report bad tab
1 2 3 4 5
1 comment total.
0 reply
alextommo wrote on June 28 2013, 06:22 pm

The harmonics on the 2nd verse are on the 5th fret of strings E, A, and D.

I want to post or [tab]
guest
You may want to rate the tab now too:
select rating
Please do not post tabs as comments. Select "correction" instead!