Oops, an error
Loading. Please wait.

Prepare For A Wound Tab

version 1
version 1

Intro

1,260 views 1 this week
no commentswrite comment
1 2 3 4 5
2 more votes to show rating
add to favorites
launch autoscroll
font size
0
reset
how to read this tab
guitar tuner
Autoscroll
slow
fast
+/-
esc
set tempo
stop
Help us to improve Ultimate-Guitar.com Take our survey!
×
Author
Difficulty
Tuning
intermediate
D A D G B E
Song: Prepare For a Wound
Artist: The Blackout
Drop D Tuning

e-----------------------------------------------|
b-----------------------------------------------|
g-----------------------------------------------|
d-4----------9----------4----------7------------|
a-4----------9----------4----------7------------|
e-4----------9----------4----------7------------|
   \
    \
     \
   Fade in Chord- hard to hear

e-----------------------------------------------------------|
b-----------------------------------------------------------|
g-----------------------------------------------------------|
d--11-11-11-------9-9-9-------4-4-4-------------------------|
a--11-11-11-------9-9-9-------4-4-4-------7777777799999999--|
e--11-11-11-------9-9-9-------4-4-4-------7777777799999999--|

e-----------------------------|
b-----------------------------|
g-----------------------------|
d-----------------------------|
a--4---4----2h4p2----2--------|
e----2-------------6---4--2---|

Sorry can't do the rest of it its really hard to hear.

Suggest correction
Give kudos to tab author, rate the tab!
1 2 3 4 5
comments
print report bad tab
guest
You may want to rate the tab now too:
select rating
Wanna post a correction for this tab? Suggest correction