Oops, an error
Loading. Please wait.

Said And Done Tab

version 1
version 1

Whole song

Interactive

994 views 1 this week
no commentswrite comment
1 2 3 4 5
x 3
add to favorites
launch autoscroll
font size
0
reset
how to read this tab
guitar tuner
Autoscroll
slow
fast
+/-
esc
set tempo
stop
Help us to improve Ultimate-Guitar.com Take our survey!
×
Author
Difficulty
Tuning
novice
D A D G B E
-----------------------------------------------------------------------------
                             Said And Done-The Blackout
-----------------------------------------------------------------------------
Tabbed by: Bloodyguts
Email: Matthewmaster12345@hotmail.co.uk

Tuning: Drop D (DADGBE)

I thought seeing as no one had a tab for this song i should tab it out. Enjoy!
Here's the link I use to play along with:

http://www.youtube.com/watch?v=xESltQaOEyI


(0:01-0:19) -Verse------------------------------------------------------------|
e|----------------------------------------------------------------------------|
B|----------------------------------------------------------------------------|
G|----------------------------------------------------------------------------|
D|-8-8-8-8-8-8-8-8-8-8-8-8-6-6-6-8-8-8-8-8-8-8-8-8-8-8-8-6-6-6-4-4-4-4-4-4-4--|
A|-8-8-8-8-8-8-8-8-8-8-8-8-6-6-6-8-8-8-8-8-8-8-8-8-8-8-8-6-6-6-4-4-4-4-4-4-4--|
D|-8-8-8-8-8-8-8-8-8-8-8-8-6-6-6-8-8-8-8-8-8-8-8-8-8-8-8-6-6-6-4-4-4-4-4-4-4--|

e|--------------------------------------------|
B|--------------------------------------------|
G|------------------------6-6-6-6-6-6-6-6-6---|   x2
D|-6-6-6-4-4-4-4-4-4-4-4----------------------|
A|-6-6-6-4-4-4-4-4-4-4-4--4-4-4-4-4-4-4-4-4---|
D|-6-6-6-4-4-4-4-4-4-4-4----------------------|

(0:19-0:24) -Pre Chorus------------------------------------|
e|---------------------------------------------------------|
B|---------------------------------------------------------|
G|---------------------------------------------------------|
D|-8-----------8-----------8-----------8-8-8-8-8-8-8-8-----|
A|-8-x-x-x-x-x-8-x-x-x-x-x-8-x-x-x-x-x-8-8-8-8-8-8-8-8-----|
D|-8-x-x-x-x-x-8-x-x-x-x-x-8-x-x-x-x-x-8-8-8-8-8-8-8-8-----|

(0:24-0:42) -Chorus-
(Rhythm Guitar)
e|----------------------------------------------------|
B|----------------------------------------------------|  The number of times
G|----------------------------8--8--8--8--11-11-11-11-|  you hit the chord
D|--8--8--8--8--8--8--11--11--8--8--8--8--11-11-11-11-|  might not be correct
A|--8--8--8--8--8--8--11--11--6--6--6--6--9--9--9--9--|  so make up your own
D|--8--8--8--8--8--8--11--11--------------------------|  strumming

e|--------------------------------------------------|
B|--------------------------------------------------|
G|---------------------------8--8--8--8--11-11------|
D|-8--8--8--8--8--8--11--11--8--8--8--8--11-11-8--8-|
A|-8--8--8--8--8--8--11--11--6--6--6--6--9--9--8--8-|
D|-8--8--8--8--8--8--11--11--------------------6--6-|

(Lead Guitar) From what I can hear, there is no lead guitar, but an almost synthy 
instrument. This is what I think sounds best over the top of the rhythm part.
e|--------------------------------------------------|
B|--------------------------------------------------|
G|-3--------------------------------6-6-6-6-8-8-8-8-|
D|----Hit Lots Of Times Until 0:30------------------| x2
A|-1--------------------------------4-4-4-4-6-6-6-6-|
D|--------------------------------------------------|


(0:42-1:00) -Verse--------------------------------------------|
e|------------------------------------------------------------|
B|------------------------------------------------------------|
G|------------------------------------------------------------|
D|-8-8-8-8-8-8-8-8-8-8-8-6-6-6-8-8-8-8-8-8-8-8-8-8-8-6-6-6----|
A|-8-8-8-8-8-8-8-8-8-8-8-6-6-6-8-8-8-8-8-8-8-8-8-8-8-6-6-6----|
D|-8-8-8-8-8-8-8-8-8-8-8-6-6-6-8-8-8-8-8-8-8-8-8-8-8-6-6-6----|
     x x x x x x x x x x         x x x x x x x x x x

e|-----------------------------------------------------------|
B|-----------------------------------------------------------|
G|--------------------------------------------6-6-6-6-6-6-6--|
D|-4-4-4-4-4-4-4-4-4-4-4-6-6-6-4-4-4-4-4-4-4-----------------|
A|-4-4-4-4-4-4-4-4-4-4-4-6-6-6-4-4-4-4-4-4-4--4-4-4-4-4-4-4--|
D|-4-4-4-4-4-4-4-4-4-4-4-6-6-6-4-4-4-4-4-4-4-----------------|
     x x x x x x x x x x         x x x x x x

(1:00-1:05) -Pre Chorus-------------|
e|----------------------------------|
B|----------------------------------|
G|----------------------------------|
D|---------Same As Before-----------|
A|----------------------------------|
D|----------------------------------|

(1:05-1:23--------------------------------| -Chorus- (Rhythm Guitar)
e|----------------------------------------|
B|----------------------------------------|
G|----------------------------------------|
D|------------------------Same As Before--|
A|----------------------------------------|
D|----------------------------------------|

(Lead Guitar)
e|--------------------------------------------------------------------------|
B|--------------------------------------------------------------------------|
G|------------------------Same As Before------------------------------------|
D|--------------------------------------------------------------------------|
A|--------------------------------------------------------------------------|
D|--------------------------------------------------------------------------|

(1:23-1:32) -Middle 8------------------------------------------------| (Lead Guitar)
e|-------------------------------------------------------------------|
B|---------------------------------------14-14-13-13-----------------|
G|------11-11-10-10-------(x4)----11-11--------------13-13---(x4)----|
D|-8-8--------------11-11--------------------------------------------|
A|-------------------------------------------------------------------|
D|-------------------------------------------------------------------|

(1:23-1:32) -Middle 8-----------| (Rhythm Guitar)
e|------------------------------|
B|------------------------------|
G|------------------------------|
D|-8~-----------------4~--------|
A|-8~-----------------4~--------|
D|-8~-----------------4~--------|

(1:32-1:50) -Middle 8------------------------------------------------| (Lead Guitar)
e|-------------------------------------------------------------------|
B|---------------------------------------14-14-13-13-----------------|
G|------11-11-10-10-------(x4)----11-11--------------13-13---(x4)----|
D|-8-8--------------11-11--------------------------------------------|
A|-------------------------------------------------------------------|
D|-------------------------------------------------------------------|

e|-----------------------------------------------------------------|
B|---------------------------------------14-14-13-13---------------|
G|------11-11-10-10-------(x4)----11-11--------------13-13---(x2)--|
D|-8-8--------------11-11------------------------------------------|
A|-----------------------------------------------------------------|
D|-----------------------------------------------------------------|

(1:32-1:50) -Middle 8------------------------------------------| (Rhythm Guitar)
e|-------------------------------------------------------------|
B|-------------------------------------------------------------|
G|-------------------------------------------------------------|
D|-8-8-8-8-8-8-8-8-8-8-8-6-6-6-8-8-8-8-8-8-8-8-----------------|
A|-8-8-8-8-8-8-8-8-8-8-8-6-6-6-8-8-8-8-8-8-8-8-----------------|
D|-8-8-8-8-8-8-8-8-8-8-8-6-6-6-8-8-8-8-8-8-8-8-6-8-6-8-6-6-----|
     x x x x x x x x x x         x x x x x x x

e|-----------------------------------------------------------|
B|-----------------------------------------------------------|
G|-----------------------------------------------------------|
D|-4-4-4-4-4-4-4-4-4-4-4-6-6-6-4-4-4-4-4-4-4-----------------|
A|-4-4-4-4-4-4-4-4-4-4-4-6-6-6-4-4-4-4-4-4-4-6-4-6-4-6-4-6---|
D|-4-4-4-4-4-4-4-4-4-4-4-6-6-6-4-4-4-4-4-4-4-----------------|
     x x x x x x x x x x         x x x x x x

e|-----------------------------------------------------------|
B|-----------------------------------------------------------|
G|-----------------------------------------------------------|
D|-8-8-8-8-8-8-8-8-8-8-8-6-6-6-8-8-8-8-8-8-8-8---------------|
A|-8-8-8-8-8-8-8-8-8-8-8-6-6-6-8-8-8-8-8-8-8-8---------------|
D|-8-8-8-8-8-8-8-8-8-8-8-6-6-6-8-8-8-8-8-8-8-8-6-8-6-8-6-6---|
     x x x x x x x x x x         x x x x x x x

e|--------------------------------------------|
B|--------------------------------------------|
G|--------------------------------------------|
D|-4-4-4-4-4-4-4-4-4-4-4-6-6-6-2/4-2/4-2------|
A|-4-4-4-4-4-4-4-4-4-4-4-6-6-6-2/4-2/4-2------|
D|-4-4-4-4-4-4-4-4-4-4-4-6-6-6-2/4-2/4-2/11b--|
     x x x x x x x x x x

(1:50-2:09) -Bridge-
I won't write out the tab on this, but it involves emphasising the Bb on certain beats 
going up to Db and bending on the end of certain bars.

     Bb               Db
    e|-|            e|--|
    B|-|            B|--|
    G|-|            G|--|
    D|8|            D|--|
    A|8|            A|--|
    D|8|            D|11|

(2:09-2:18) -Interlude--------------------|
e|----------------------------------------|
B|----------------------------------------|
G|----------------------------9-9-11-11---|
D|-6-6-6-6-6-9-9-11-11-11-11--9-9-11-11---|
A|-6-6-6-6-6-9-9-11-11-11-11--7-7-9--9----|
D|-6-6-6-6-6-9-9-11-11-11-11--------------|

(2:18-2:55) -Chorus-


Play As Normal But Twice As Long

(2:55-3:14) -Outro-

Play Bridge And When Finished Slide Down To Open D Chord And Let Ring

   D
  e|-|
  B|-|
  G|-|
  D|0|
  A|0|
  D|0|

Hope you enjoy, email me or comment if i need to change anything
Suggest correction
Give kudos to tab author, rate the tab!
1 2 3 4 5
comments
print report bad tab
guest
You may want to rate the tab now too:
select rating
Wanna post a correction for this tab? Suggest correction