Oops, an error
Loading. Please wait.

Save Our Selves The Warning Tab

version 1
version 1

Whole song

8,880 views 1 this week
3 commentsread comments
1 2 3 4 5
accurate
x 5
add to favorites
launch autoscroll
font size
0
reset
how to read this tab
guitar tuner
Tab Pro tools
  • play this tab
  • loop segment
  • change instrument
  • show fretboard
  • metronome
×
Best way to learn
"Save Our Selves The Warning"
Autoscroll
slow
fast
+/-
esc
set tempo
stop
Contributor
-------------------------------------------------------------------------------
                             Save Ourselves The Warning-The Blackout
-------------------------------------------------------------------------------
Tabbed by:brokenunder
Email:tears--dont--fall@hotmail.co.uk

Tuning: Drop D

This song is the new single off the new album and its a tune. 
Theres not really any lead guitar i can hear which makes it very easy to play
have fun :)
rate and comment :)

Intro/Chorus
e|---------------------------------------------------------------------------|
B|---------------------------------------------------------------------------|
G|---------------------------------------------------------------------------|
D|-88888888-1111111111111111-66666666-4444-1111------------------------------|
A|-88888888-1111111111111111-66666666-4444-1111------------------------------|
E|-88888888-1111111111111111-66666666-4444-1111------------------------------|
                 ^11's                       ^1's
e|---------------------------------------------------------------------------|
B|---------------------------------------------------------------------------|
G|---------------------------------------------------------------------------|
D|-88888888-1111111111111111-66666666-4444--1--------------------------------|
A|-88888888-1111111111111111-66666666-4444--1--------------------------------|
E|-88888888-1111111111111111-66666666-4444--1--------------------------------|

Verse
e|---------------------------------------------------------------------------|
B|---------------------------------------------------------------------------|
G|---------------------------------------------------------------------------|
D|-888888888888-666666666666-888888888888-666666-1~--------------------------|
A|-888888888888-666666666666-888888888888-666666-1~--------------------------|
E|-888888888888-666666666666-888888888888-666666-1~--------------------------|
   PM------------------------------------------|

Lead
e|---------------------------------------------------------------------------|
B|---------------9-----------------------------------------------------------|
G|---88888888-10-------------------------------------------------------------|
D|---------------------------------------------------------------------------|
A|---------------------------------------------------------------------------|
E|---------------------------------------------------------------------------|

from what i can hear the lead guitar just does muting 
(with the fret hand and strumming with the picking hand) through the first half of the verse
the leads are really quiet so i cant be sure that its right


Chorus


Post-Chorus
e|---------------------------------------------------------------------------|
B|---------------------------------------------------------------------------|
G|---------------------------------------------------------------------------|
D|----------------------------------11111------------------------------------|
A|----------------------------------11111------------------------------------|
E|--8868686868686-11--8868686868686-11111------------------------------------|
                                     ^ 11's not 1's

Verse

Chorus

Bridge
e|---------------------------------------------------------------------------|
B|---------------------------------------------------------------------------|
G|---------------------------------------------------------------------------|
D|--1-1---1-1---8\--------------------------------------1111-----------------|
A|--1-1---1-1---8\--------------------------------------1111-----------------|
E|--1-1---1-1---8\-8868686868686-11--X5 8868686868686---1111-----------------|

e|---------------------------------------------------------------------------|
B|---------------------------------------------------------------------------|
G|---------------------------------------------------------------------------|
D|---------------------------------------------------------------------------|
A|---------------------------------------------------------------------------|
E|--8868686868686-11 X4------------------------------------------------------|

Chorus


| /  slide up
| \  slide down
| h  hammer-on
| p  pull-off
| ~  vibrato
| +  harmonic
| x  Mute note
===============================================================================
comments
print report bad tab
3 comments total.
0 reply
Vortex_uk wrote on July 16 2009, 07:08 am

the little riffs just before the chorus when Gavin starts singing ain't right, but i think i figured it out...

|---------------------------------------|
|---------------------------------------|
|---------------------------------------|
|--3-3-3-3-8-8-8-8-8-6-8-6-11-11-11-11--|
|---------------------------------------|
|---------------------------------------|

0 reply
shooshi123 wrote on July 28 2009, 09:16 am

Sehr gut :)

0 reply
Guitarmaster536 wrote on August 1 2009, 06:07 am

very good tab mate well done

I want to post or [tab]
guest
You may want to rate the tab now too:
select rating
Please do not post tabs as comments. Select "correction" instead!