Oops, an error
Loading. Please wait.

Save Our Selves The Warning Tab

version 2
version 2

Whole song

6,457 views 1 this week
2 commentsread comments
1 2 3 4 5
excellent!
x 5
add to favorites
launch autoscroll
font size
0
reset
how to read this tab
guitar tuner
Autoscroll
slow
fast
+/-
esc
set tempo
stop
Help us to improve Ultimate-Guitar.com Take our survey!
×
Author
Difficulty
Tuning
JimiBluff 114
novice
D A D G B E
-------------------------------------------------------------------------------
                Save Our Selves (The Warning) - The Blackout
-------------------------------------------------------------------------------
Tabbed by: JimiBluff
Email: JimiBluff@googlemail.com

Tuning:DADGBe


Song Structure:
Time       |      Guitar 1             |    Guitar 2
0:00-0:10  |      Intro             x1 |    Vocal Melody                    x1
0:11-0:20  |      Intro Part B      x1 |    Vocal Melody (Without 2nd part) x1
0:21-0:32  |      Verse Part A      x1 |    Muted Strumming                 x1
0:33-0:41  |      Verse Part B      x1 |    "Your time is running out" Riff x4
0:42-0:53  |      Chorus            x1 |    
0:54-1:03  |      Chorus            x1 |    Vocal Melody                    x1
1:04-1:08  |      Fill B            x1 |    Fill A                          x1
1:09-1:19  |      Verse Part A      x1 |    Muted Strumming                 x1
1:20-1:29  |      Verse Part B      x1 |    "Your time is running out" Riff x4
1:30-1:51  |      Chorus            x2 |    Vocal Melody                    x2
1:52-1:56  |      Bridge Part A     x1 |
1:57-2:01  |                       Drum Fill
2:02-2:18  |      Bridge Part B     x6 |
2:19-2:29  |      Bridge Part C     x4 |
2:30-3:21  |      Chorus            x5 |    Chorus                          x5
3:22-3:23  |      Outro             x1 |
3:24-3:35  |                         Vocals


Intro/Chorus
e|---------------------------------------------------------------
B|---------------------------------------------------------------
G|---------------------------------------------------------------
D|--8-8-8-8-8-8-8-8-8-8-8-8-11-11-11-11-11-11-11-11-11-11-11-11--
A|--8-8-8-8-8-8-8-8-8-8-8-8-11-11-11-11-11-11-11-11-11-11-11-11--
D|--8-8-8-8-8-8-8-8-8-8-8-8-11-11-11-11-11-11-11-11-11-11-11-11--

e|---------------------------------------------------|
B|---------------------------------------------------|
G|---------------------------------------------------|
D|--6-6-6-6-6-6-6-6-6-6-6-6-4-4-4-4-4-4-1-1-1-1-1-1--|
A|--6-6-6-6-6-6-6-6-6-6-6-6-4-4-4-4-4-4-1-1-1-1-1-1--|
D|--6-6-6-6-6-6-6-6-6-6-6-6-4-4-4-4-4-4-1-1-1-1-1-1--|

Intro Part B
e|---------------------------------------------------------------
B|---------------------------------------------------------------
G|---------------------------------------------------------------
D|--8-8-8-8-8-8-8-8-8-8-8-8-11-11-11-11-11-11-11-11-11-11-11-11--
A|--8-8-8-8-8-8-8-8-8-8-8-8-11-11-11-11-11-11-11-11-11-11-11-11--
D|--8-8-8-8-8-8-8-8-8-8-8-8-11-11-11-11-11-11-11-11-11-11-11-11--

e|----------------------------------------------------|
B|----------------------------------------------------|
G|----------------------------------------------------|
D|---6-6-6-6-6-6-6-6-6-6-6-6-4-4-4-4-4-4-1------------|
A|---6-6-6-6-6-6-6-6-6-6-6-6-4-4-4-4-4-4-1------------|
D|---6-6-6-6-6-6-6-6-6-6-6-6-4-4-4-4-4-4-1------------|

Vocal Melody
e|----------------|     e|-----------------|
B|----------11-9--|     B|-----------------|
G|----------------| x3  G|--11-10----8-10--|
D|--8-10-11-------|     D|--------11-------|
A|----------------|     A|-----------------|
D|----------------|     D|-----------------|

Verse Part A
e|---------------------------------------------------------------------------------------------|
B|---------------------------------------------------------------------------------------------|
G|---------------------------------------------------------------------------------------------|
D|--8-8-8-8-8-8-8-8-8-8-8-8-6-6-6-6-6-6-6-6-6-8-8-8-8-8-8-8-8-8-8-8-8-6-6-6-6-6-6-1-x-x-x-x-x--|
A|--8-8-8-8-8-8-8-8-8-8-8-8-6-6-6-6-6-6-6-6-6-8-8-8-8-8-8-8-8-8-8-8-8-6-6-6-6-6-6-1-x-x-x-x-x--|
D|--8-8-8-8-8-8-8-8-8-8-8-8-6-6-6-6-6-6-6-6-6-8-8-8-8-8-8-8-8-8-8-8-8-6-6-6-6-6-6-1-x-x-x-x-x--|
  PM---|  ---|  ---|  ---|  ---|  ---|  ---|  ---|  ---|  ---|  ---|  ---|  ---|

Verse Part B
e|---------------------------------------------------------------------------------------------|
B|---------------------------------------------------------------------------------------------|
G|---------------------------------------------------------------------------------------------|
D|--8-8-8-8-8-8-8-8-8-8-8-8-6-6-6-6-6-6-6-6-6-8-8-8-8-8-8-8-8-8-8-8-8-6-6-6-6-6-6-1-1-1-1-1-1--|
A|--8-8-8-8-8-8-8-8-8-8-8-8-6-6-6-6-6-6-6-6-6-8-8-8-8-8-8-8-8-8-8-8-8-6-6-6-6-6-6-1-1-1-1-1-1--|
D|--8-8-8-8-8-8-8-8-8-8-8-8-6-6-6-6-6-6-6-6-6-8-8-8-8-8-8-8-8-8-8-8-8-6-6-6-6-6-6-1-1-1-1-1-1--|
  PM---|  ---|  ---|  ---|  ---|  ---|  ---|  ---|  ---|  ---|  ---|  ---|  ---|  -----|

Muted Strumming
e|--x-x-x-x-x-x-x-x-x-x-x-x--|
B|--x-x-x-x-x-x-x-x-x-x-x-x--|
G|--x-x-x-x-x-x-x-x-x-x-x-x--|
D|--x-x-x-x-x-x-x-x-x-x-x-x--|
A|--x-x-x-x-x-x-x-x-x-x-x-x--|
D|--x-x-x-x-x-x-x-x-x-x-x-x--|

"Your time is running out" Riff
e|-----------------------------------|
B|-----------------------------------|
G|----------------------------6-6-6--|
D|----------8-8-8-8-8-6-8-6-8--------|
A|--4-4-4-4--------------------------|
D|-----------------------------------|

Fill A
e|----------------------------------------------------------------------|
B|----------------------------------------------------------------------|
G|----------------------------------------------------------------------|
D|----------------------------------------------------------------------|
A|----------------------------------------------------------------------|
D|--8-8-8-6-8-6-8-6-8-8-8-6-8-11-11-11-8-8-8-6-8-6-8-6-1-1-1-1-1-1-1-1--|

Fill B
e|----------------------------------------------------------------------|
B|----------------------------------------------------------------------|
G|----------------------------------------------------------------------|
D|-----------------------------------------------------1-1-1-1-1-1-1-1--|
A|-----------------------------------------------------1-1-1-1-1-1-1-1--|
D|-----------------------------------------------------1-1-1-1-1-1-1-1--|
                                                    PM----------|

Bridge Part A
e|------------------------|
B|------------------------|
G|------------------------|
D|--8--8--8-8--8--8-x-8\--|
A|--8--8--8-8--8--8-x-8\--|
D|--8--8--8-8--8--8-x-8\--|

Bridge Part B
e|-----------------------------------|
B|-----------------------------------|
G|-----------------------------------|
D|-----------------------------------|
A|-----------------------------------|
D|--8-8-8-6-8-6-8-6-8-8-8-6-8-6-1-1--|

Bridge Part C
e|-----------------------------------|
B|-----------------------------------|
G|-----------------------------------|
D|--8-8-8-6-8-6-8-6-8-8-8-6-8-6-1-1--|
A|--8-8-8-6-8-6-8-6-8-8-8-6-8-6-1-1--|
D|--8-8-8-6-8-6-8-6-8-8-8-6-8-6-1-1--|

Outro
e|------|
B|------|
G|------|
D|--8\--|
A|--8\--|
D|--8\--|

************************************

| /   slide up
| \   slide down
| h   hammer-on
| p   pull-off
| ~   vibrato
| +   harmonic
| x   Mute note
| b   Bend
| pb  Pre-bend
| br  Bend release
| pbr Pre-bend release
| brb Bend release bend

************************************
Suggest correction new What's this?
You can suggest a correction to this tab. Community and Mods will review your correction and vote to approve or reject it.
comments
print report bad tab
2 comments total.
0 reply
li4m4 95 wrote on April 2 2010, 07:47 am

Very good tab, definately better than the first version. 5*s just because of the improvement. also nice to know when the parts are played, i never even heard bridge part A when looking over the tab the first time.

0 reply
JimiBluff 114 wrote on April 3 2010, 11:20 am

Thanks li4m4! :)

guest
You may want to rate the tab now too:
select rating
Please do not post tabs as comments. Select "correction" instead!