Oops, an error
Loading. Please wait.

Shutthefuckuppercut Tab

version 1
version 1

Whole song

5,220 views 1 this week
1 commentread comment
1 2 3 4 5
accurate
x 3
add to favorites
launch autoscroll
font size
0
reset
how to read this tab
guitar tuner
Autoscroll
slow
fast
+/-
esc
set tempo
stop
Help us to improve Ultimate-Guitar.com Take our survey!
×
Contributor
this is my first ever tab, im not sure whether its 100% right but ive done my best.

Song: ShutTheFuckUppercut
Band: The Blackout
Album: The Best In Town

||my bands: 
||www.myspace.com/drownthedarling and || ||www.myspace.com/thisdaysdarkfate    ||


* = Pinched harmonic
> = let the note carry on

Intro:

Eb|-----------------|
Bb|-----------------|
Gb|-5---7-----------|
Db|-5-5-7-7--875-2-||
Ab|-3-5-5-7--875-2--|
Db|---5---7--875-2--|

Verse:

Eb|--------------------------------|
Bb|--------------------------------|
Gb|-----------------------------5--|   x3
Db|-202-02-20202-5-202-02-20202-5--|
Ab|-202-02-20202-5-202-02-20202-3--|
Db|-202-02-20202-5-202-02-20202----|

Eb|-----------------|
Bb|-----------------|
Gb|-----------------|
Db|-202-02-20202-5--|
Ab|-202-02-20202-5--|
Db|-202-02-20202-5--|

Pre Chorus:

Eb|--------------------------------
Bb|--------------------------------
Gb|-------5---------------5--------
Db|-20202-5-20202-5-20202-5-2------
Ab|-20202-3-20202-5-20202-3-2(x6)--
Db|-20202---20202-5-20202---2------
                           (p)

Chorus:

Eb|--------------------------------------------------|
Bb|--------------------------------------------------|
Gb|-5----------------------------------------7-------|
Db|-5(x16)-222-2-2-2-2-2-0--222-2-2-2-2-2-0--7(x16)--|
Ab|-3------222-2-2-2-2-2-0--222-2-2-2-2-2-0--5-------|
Db|--------222-2-2-2-2-2-0--222-2-2-2-2-2-0----------|

Eb|------------------|
Bb|------------------|
Gb|------------------|
Db|-202025-00-02-20--|
Ab|-202025-00-02-20--|
Db|-202025-00-02-20--|
           pp

Verse:

Eb|--------------------------------|
Bb|--------------------------------|
Gb|-----------------------------5--|   x3
Db|-202-02-20202-5-202-02-20202-5--|
Ab|-202-02-20202-5-202-02-20202-3--|
Db|-202-02-20202-5-202-02-20202----|

Pre Chorus:

Eb|--------------------------------
Bb|--------------------------------
Gb|-------5---------------5--------
Db|-20202-5-20202-5-20202-5-2------
Ab|-20202-3-20202-5-20202-3-2(x6)--
Db|-20202---20202-5-20202---2------
                           (p)

Chorus:

Eb|--------------------------------------------------|
Bb|--------------------------------------------------|
Gb|-5----------------------------------------7-------|
Db|-5(x16)-222-2-2-2-2-2-0--222-2-2-2-2-2-0--7(x16)--|
Ab|-3------222-2-2-2-2-2-0--222-2-2-2-2-2-0--5-------|
Db|--------222-2-2-2-2-2-0--222-2-2-2-2-2-0----------|

Eb|-----|
Bb|-----|
Gb|-----|
Db|-2>--|
Ab|-2>--|
Db|-2>--|


Eb|------------------------------|
Bb|------------------------------|
Gb|-----------------5---7--------|
Db|-222-2-2-222-222-5-5-7-7------|    x4
Ab|-222-2-2-222-222-3-5-5-7------|
Db|-222-2-2-222-222---5---7-875--|

Eb|------------------|
Bb|------------------|
Gb|------------------|
Db|-222-2-2-222-222--|    x8    
Ab|-222-2-2-222-222--|
Db|-222-2-2-222-222--|



Eb|-----------------------------------------|
Bb|-----------------------------------------|
Gb|-5>------------------5>--------7-7-------|
Db|-5>--------2>--------5>--------7-7(x16)--|     
Ab|-3>--------2>--------3>--------5-5-------|
Db|-----------2>----------------------------|
                                    p

Chorus:


Eb|--------------------------------------------------|
Bb|--------------------------------------------------|
Gb|-5----------------------------------------7-------|
Db|-5(x16)-222-2-2-2-2-2-0--222-2-2-2-2-2-0--7(x16)--|
Ab|-3------222-2-2-2-2-2-0--222-2-2-2-2-2-0--5-------|
Db|--------222-2-2-2-2-2-0--222-2-2-2-2-2-0----------|

Outro:

Eb|----------------------||--------------------|
Bb|----------------------||--------------------|
Gb|----------------------||--------------------|
Db|-202025-00-02-20--(x3)||-202025-00-0---0----|     x2
Ab|-202025-00-02-20------||-202025-00-0---0----|
Db|-202025-00-02-20------||-202025-00-0*3-0*3--|

Eb|----||
Bb|----||
Gb|----||
Db|-2--||
Ab|-2--||
Db|-2--||
Suggest correction What's this?
You can suggest a correction to this tab. Community and Mods will review your correction and vote to approve or reject it.
comments
We did not receive enough feedback on this tab! Please rate:
print report bad tab
1 2 3 4 5
1 comment total.
0 reply
sum41rules 130 wrote on May 18 2009, 03:09 pm

ok you got the basic sounds there :)

I want to post or [tab]
guest
You may want to rate the tab now too:
select rating
Please do not post tabs as comments. Select "correction" instead!