Oops, an error
Loading. Please wait.

Shutthefuckuppercut Tab

version 2
version 2

Whole song

2,484 views 1 this week
no commentswrite comment
1 2 3 4 5
please rate
add to favorites
launch autoscroll
font size
0
reset
how to read this tab
guitar tuner
Tab Pro tools
  • play this tab
  • loop segment
  • change instrument
  • show fretboard
  • metronome
×
Best way to learn
"Shutthefuckuppercut"
Autoscroll
slow
fast
+/-
esc
set tempo
stop
Contributor
This is the new song by The Blackout i hope you enjoy the tab ant probs email me: 
zakkwyldebls@live.co.uk or xfire me: devilstorm90
tuning:
Eb
Bb
Gb
Db
Ab
Db

                       


                       let ring --------        
intro             p
 [-------------------------------------------------------]
 [-------------------------------------------------------]
 [-------------------------------------------------------]
 [-------------------------------------------------------]
 [----10-5-12-7-5------2---------------------------------]
 [----10-5-12-7-5-7-5--2-----------------/////////-------]

                       
Verse do repeat 5x
 [----------------------------------------------------------]
 [----------------------------------------------------------]
 [----------------------------------------------------------]
 [--------------------------------------------------------5-]
 [---2--0-2-0-2-0--2--0-2-0-2-5--2--0-2-0-2-0--2--0-2-0-2-5-]
 [---2--0-2-0-2-0--2--0-2-0-2-5--2--0-2-0-2-0--2--0-2-0-2---]
                                      

 [-------------------------------------------------------------]
 [-------------------------------------------------------------]
 [-------------------------------------------------------------]
 [-------------------------------------------------------------]
 [--222222-10-10-10-10-10-10-10-10-1010-10-10-10-10-10-10-10-10]
 [--222222-10-10-10-10-10-10-10-10-1010-10-10-10-10-10-10-10-10]

 [-------------------------------------------------------------------]
 [-------------------------------------------------------------------]
 [-------------------------------------------------------------------]
 [-------------------------------------------------------------------]
 [-2--2-2-2-2-2-2-2-0-2--2-2-2-2-2-2-0---10-10-10-10-10-10-10-10-1010]
 [-2--2-2-2-2-2-2-2-0-2--2-2-2-2-2-2-0---10-10-10-10-10-10-10-10-1010]

 [-------------------------------------------------------]
 [-------------------------------------------------------]
 [-------------------------------------------------------]
 [-------------------------------------------------------]
 [-10-10-10-10-10-10-10-10-1010-12-12-12-12-12-12-12-1212]
 [-10-10-10-10-10-10-10-10-1010-12-12-12-12-12-12-12-1212]

 [-------------------------------------------------------]
 [-------------------------------------------------------]
 [-------------------------------------------------------]
 [-------------------------------------------------------]
 [-12-12-12-12-12-12-12-12-1212--------------------------]
 [-12-12-12-12-12-12-12-12-1212-24242424-----------------]
                               
                         if you dont have 24 frets bend on the 22 



 [--------------------------------------------------------]
 [--------------------------------------------------------]
 [--------------------------------------------------------]
 [--------------------------------------------------------]
 [2--2-0-2-0-2-5--2--0--2--2-0-2-0-2-5--2--0--------------]
 [2--2-0-2-0-2-5--2--0--2--2-0-2-0-2-5--2--0--------------]

                            
   go back to verse and do chorus the go to next line 



    let ring ----------------
 [---------------------------------------------]
 [---------------------------------------------]
 [---------------------------------------------]
 [---------------------------------------------]
 [--2---------------------------------------222]
 [--2--------------------------///////////--222]




 repeat 4x
 [-------------------------------------------------------]
 [-------------------------------------------------------]
 [-------------------------------------------------------]
 [-------------------------------------------------------]
 [-2--2-222-2--2-222-2-10-5-12-7-5-----------------------]
 [-2--2-222-2--2-222 2-10-5-12-7-5-7-5-------------------] 
 repeat 8x 
 [--------------------]
 [--------------------]
 [--------------------]
 [--------------------]
 [-2--2-222-2--2-222-2]
 [-2--2-222-2--2-222 2]

back to chorus then here  

 [---------------------------------------------------------------]
 [---------------------------------------------------------------]
 [---------------------------------------------------------------]
 [---------------------------------------------------------------]
 [2--2-0-2-0-2-5-2--0--2--2-0-2-0-2-5-2--0--2--2-0-2-0-2-5-2--0--]
 [2--2-0-2-0-2-5-2--0--2--2-0-2-0-2-5-2--0--2--2-0-2-0-2-5-2--0--]
                      hm hm
 [---------------------------------------------]
 [---------------------------------------------]
 [---------------------------------------------]
 [---------------------------------------------]
 [2--2-0-2-0-2-5-2--0--3-3---------------------]
 [2--2-0-2-0-2-5-2--0-0-0----------------------]

 [---------------------------------------------------------------]
 [---------------------------------------------------------------]
 [---------------------------------------------------------------]
 [---------------------------------------------------------------]
 [2--2-0-2-0-2-5-2--0--2--2-0-2-0-2-5-2--0--2--2-0-2-0-2-5-2--0--]
 [2--2-0-2-0-2-5-2--0--2--2-0-2-0-2-5-2--0--2--2-0-2-0-2-5-2--0--]
                      hm hm
 [---------------------------------------------]
 [---------------------------------------------]
 [---------------------------------------------]
 [---------------------------------------------]
 [2--2-0-2-0-2-5-2--0--3-3-2-------------------]
 [2--2-0-2-0-2-5-2--0-0-0--2-------------------]
comments
We did not receive enough feedback on this tab! Please rate:
print report bad tab
1 2 3 4 5
I want to post or [tab]
guest
You may want to rate the tab now too:
select rating
Please do not post tabs as comments. Select "correction" instead!