Oops, an error
Loading. Please wait.

Silent When We Speak Tab

version 1
version 1

Whole song

2,009 views 1 this week
no commentswrite comment
1 2 3 4 5
1 last vote to show rating
add to favorites
launch autoscroll
font size
0
reset
how to read this tab
guitar tuner
Autoscroll
slow
fast
+/-
esc
set tempo
stop
Help us to improve Ultimate-Guitar.com Take our survey!
×
Author
-------------------------------------------------------------------------------
                             Silent (When We Speak) -  The Blackout
-------------------------------------------------------------------------------
Tabbed by: Nick
Email: nicktuckerrr@hotmail.com

Tuning:Standard 

Verses and Outro:
  PM-----------------------
     x16    x16    x16    x16    x16    x8    x8   x16  x8   x8
e|---------------------------------------------------------------------------|
B|---4------2------4------2-------------4-----2---------4----2---------------|
G|---4------4------4------4------4------4-----4----4----4----4---------------|
D|-------------------------------2-----------------2-------------------------|
A|---------------------------------------------------------------------------|
E|---------------------------------------------------------------------------|

Chorus:
     x16    x16    x16    x16      x16   x16   x16   x16
e|---------------------------------------------------------------------------|
B|---------------------------------------------------------------------------|
G|---4------9------4------9--------6-----9-----6-----9-----------------------|
D|---4------9------4------9--------6-----9-----6-----9-----------------------|
A|---2------7------2------7--------4-----7-----4-----7-----------------------|
E|---------------------------------------------------------------------------|


| /  slide up
| \  slide down
| h  hammer-on
| p  pull-off
| ~  vibrato
| +  harmonic
| x  Mute note
===============================================================================
Suggest correction
Give kudos to tab author, rate the tab!
1 2 3 4 5
comments
print report bad tab
guest
You may want to rate the tab now too:
select rating
Wanna post a correction for this tab? Suggest correction