Oops, an error
Loading. Please wait.

Spread Legs Not Lies Bass Tab

version 1
version 1

Whole song

Interactive

1,504 views 1 this week
2 commentsread comments
1 2 3 4 5
x 3
add to favorites
launch autoscroll
font size
0
reset
guitar tuner
Autoscroll
slow
fast
+/-
esc
set tempo
stop
Help us to improve Ultimate-Guitar.com Take our survey!
×
Author
Difficulty
Tuning
novice
C G C F A D
Spread Legs Not Lies Bass Tab

Wrote This for the bassist in my band, basically these are the different parts,
just figure out when and how many times to play them

Intro / main riff
F|--------------|
C|--------------|
G|--------------|
C|--3-1-6-1-3-1-|

Verse
F|----------------------|
C|----------------------|
G|----------------------|
C|--1-3-3-3-1-1-3-3-1-3-|

Chorus
F|--------------------------------------------------------------|
C|--------------------------------------------------------------|
G|--4-4-4-4-4-4-4-4-4-4-4-4-6-6-6-6-6-6-6-6-6-6-6-6-------------|
C|--------------------------------------------------3-1-6-1-3-1-|

Bridge
F|--------------------|
C|--------------------|
G|------------4~--6~--|
C|--3~--6~------------|

F|----------------------|
C|----------------------|
G|----------------------|
C|--1-3-3-3-1-1-3-3-1-3-|
Suggest correction
Give kudos to tab author, rate the tab!
1 2 3 4 5
comments
print report bad tab
2 comments total.
0 reply
jammyrat 82 Aug 03, 2009 11:02 AM

drop c# my friend

0 reply
Jcruik 72 Aug 11, 2009 09:01 AM

yer we play in drop C couldnt be arsed to tune up

guest
You may want to rate the tab now too:
select rating
Wanna post a correction for this tab? Suggest correction