Oops, an error
Loading. Please wait.

Spread Legs Not Lies Tab

version 1
version 1

Intro

Interactive

2,980 views 1 this week
3 commentsread comments
1 2 3 4 5
worth learning
x 3
add to favorites
launch autoscroll
font size
0
reset
how to read this tab
guitar tuner
Autoscroll
slow
fast
+/-
esc
set tempo
stop
Help us to improve Ultimate-Guitar.com Take our survey!
×
Author
Difficulty
Tuning
novice
D A D G B E
Song: Spread Legs Not Lies
Artist: The Blackout

Drop D tuning

Just kinda stumbled across this whilst messing around, dont really know all the parts to 
song.


Intro
e---------------------|
b---------------------|
d---------------------|
d--2--0-5--0-2-0------|
a--2--0-5--0-2-0------|
d--2--0-5--0-2-0------|

Verse
e------------------------------------------------|
b------------------------------------------------|
d--------------------------------9-7-5-----------|
d------------------------------------------------|
a--0--2-22-00-2-2--22--0-2-22-0--7-5-3-----------|
d--0--2-22-00-2-2--22--0-2-22-0------------------|

Halfway through verse Gtr 2
e-------------------------------------------------------------------|
b--13-1313131313-13/15-1515151515--13-1313131313-13/15-1515151515---|
d-------------------------------------------------------------------|
d-------------------------------------------------------------------|
a-------------------------------------------------------------------|
d-------------------------------------------------------------------|


Well i think the main riff is accurate but the rest is kinda crappy i know. anyway try 
make the best of it :)
Suggest correction new What's this?
You can suggest a correction to this tab. Community and Mods will review your correction and vote to approve or reject it.
comments
We did not receive enough feedback on this tab! Please rate:
print report bad tab
1 2 3 4 5
3 comments total.
+2 reply
willsi100 25 wrote on August 29 2008, 12:30 pm

Sorry dude its totally wrong (not being disrespectful though)... here is the correction for the intro



Tuning drop D then half a step down

Intro

eb|------------------------|
Bb|------------------------|
Gb|------------------------|
Db|-2-0-5-0-2-0------------| X 8
Ab|-2-0-5-0-2-0------------|
Db|-2-0-5-0-2-0------------|

eb|----------------------------------|
Bb|----------------------------------|
Gb|---------------------------12-11-9|
Db|----------------------------x--x-x|
Ab|-0-22-2-0-22-2-0--0-22-2-0-10--9-7|
Db|-0-22-2-0-22-2-0--0-22-2-0--------|

They are the right chords not sure about the strumming order but im sure you can work it out

Btw i haven't wrote up tabs before so sorry if it looks a bit weird lol

0 reply
willsi100 25 wrote on August 29 2008, 12:30 pm

Sorry dude its totally wrong (not being disrespectful though)... here is the correction for the intro



Tuning drop D then half a step down

Intro

eb|------------------------|
Bb|------------------------|
Gb|------------------------|
Db|-2-0-5-0-2-0------------| X 8
Ab|-2-0-5-0-2-0------------|
Db|-2-0-5-0-2-0------------|

eb|----------------------------------|
Bb|----------------------------------|
Gb|---------------------------12-11-9|
Db|----------------------------x--x-x|
Ab|-0-22-2-0-22-2-0--0-22-2-0-10--9-7|
Db|-0-22-2-0-22-2-0--0-22-2-0--------|



They are the right chords not sure about the strumming order but im sure you can work it out

Btw i haven't wrote up tabs before so sorry if it looks a bit weird lol

0 reply
prophetsfan 275 wrote on October 2 2008, 03:09 pm

Willsi, i would give you a little thumbs up thing, but your tab is exactly the same as the original post exept the last 3 chords. and the tuning, but the blackout ALWAYS use that tuning XD

Plus i think your my friend on xbox live XD so you get a thumb anyway

guest
You may want to rate the tab now too:
select rating
Please do not post tabs as comments. Select "correction" instead!