Oops, an error
Loading. Please wait.

Spread Legs Not Lies Bass Tab

version 2
version 2

Whole song

Interactive

457 views 1 this week
no commentswrite comment
1 2 3 4 5
please rate
add to favorites
launch autoscroll
font size
0
reset
guitar tuner
Autoscroll
slow
fast
+/-
esc
set tempo
stop
Help us to improve Ultimate-Guitar.com Take our survey!
×
Difficulty
Tuning
novice
D A D G B E
Spread Legs, Not Lies
The Blackout
We are The Dynamite
Bass Tab

Tuning: Drop D




WAIT FOR BASS TO COME IN

Intro / main riff
G|--------------|
D|--------------|
A|--------------| x4
D|--3-1-6-1-3-1-|

Verse
G|----------------------|
D|----------------------|
A|----------------------| x4
D|--1-3-3-3-1-1-3-3-1-3-|

Chorus
G|--------------------------------------------------------------------------|
D|--------------------------------------------------------------------------|
A|--4-4-4-4-4-4-4-4-4-4-4-4-6-6-6-6-6-6-6-6-6-6-6-6-------------------------| 
D|--------------------------------------------------3-1-6-1-3-1-3-1-6-1-3-1-|
x4 (*) on fourth time dont play these notes         * * * * * * * * * * * * 

Verse
G|----------------------|
D|----------------------|
A|----------------------| x4
D|--1-3-3-3-1-1-3-3-1-3-|

Chorus
G|--------------------------------------------------------------------------|
D|--------------------------------------------------------------------------|
A|--4-4-4-4-4-4-4-4-4-4-4-4-6-6-6-6-6-6-6-6-6-6-6-6-------------------------|  
D|--------------------------------------------------3-1-6-1-3-1-3-1-6-1-3-1-|
x4 (*) on fourth time dont play these notes         * * * * * * * * * * * * 

Bridge
G|--------------------|
D|--------------------|
A|------------4~--6~--| x3
D|--3~--6~------------|

G|----------------------|
D|----------------------|
A|----------------------| x4
D|--1-3-3-3-1-1-3-3-1-3-|

Chorus
G|--------------------------------------------------------------------------|
D|--------------------------------------------------------------------------|
A|--4-4-4-4-4-4-4-4-4-4-4-4-6-6-6-6-6-6-6-6-6-6-6-6-------------------------| 
D|--------------------------------------------------3-1-6-1-3-1-3-1-6-1-3-1-|
x4 (*) on fourth time dont play these notes         * * * * * * * * * * * * 

G|----------------------|
D|----------------------|
A|----------------------| x2
D|--1-3-3-3-1-1-3-3-1-3-|

G|--------------|
D|--------------|
A|--------------| x8
D|--3-1-6-1-3-1-|
Suggest correction
What's this?
You can suggest a correction to this tab. Community and Mods will review your correction and vote to approve or reject it.
comments
We did not receive enough feedback on this tab! Please rate:
print report bad tab
1 2 3 4 5
guest
You may want to rate the tab now too:
select rating
Please do not post tabs as comments. Select "correction" instead!