Oops, an error
Loading. Please wait.

Start The Party Bass Tab

version 1
version 1

Whole song

Interactive

209 views 1 this week
no commentswrite comment
1 2 3 4 5
2 more votes to show rating
add to favorites
launch autoscroll
font size
0
reset
guitar tuner
Autoscroll
slow
fast
+/-
esc
set tempo
stop
Help us to improve Ultimate-Guitar.com Take our survey!
×
Author
Intro
G|--------------------------------------------------------|
D|-----3---5------------3--5--------------3--5------------|
A|-----------3---------------3-------------------3-333355-|
D|-5--------------5---------------5-----------------------|

Verse
G|-----------------|
D|-----------------|
A|-----------------|x8 (Pretty Fast Here)
D|-3-5-5-3-5-5-3-5-|
   
Pre-Chorus
G|-------------------------------------------------------|
D|---------------------33333333--------------------------|
A|-------------------------------------------------------|
D|-1~---3~---1~---3~-------------------------------------|

Chorus
G|--------------------------------------------------------|
D|-----3---5------------3--5--------------3--5------------|
A|-----------3---------------3-------------------3-333355-|X2
D|-5--------------5---------------5-----------------------|

G|-------------------------------------------------------|
D|-------------------------------------------------------|
A|-11111111----------3-333355----------------------------|
D|----------33333333-------------------------------------|

Bridge
(Guitars Palm Mute First)
G|------------------------------------|
D|------------------------------------|
A|---------3331111---------3335555----|X1
D|-55533333-------355533333-------3---|

G|------------------------------------------------|
D|------------------------------------------------|
A|---------3331111---------10101010101010101010~--|X1
D|-55533333-------355533333-----------------------|

Pre-Chorus
G|------|
D|------|
A|-3-1~-|
D|------|

Last Chorus
G|--------------------------------------------------------|
D|-----3---5------------3--5--------------3--5------------|
A|-----------3---------------3-------------------3-333355-|X2
D|-5--------------5---------------5-----------------------|

Outro
G|------------------------------------|
D|------------------------------------|
A|---------3331111---------3335555----|
D|-55533333-------355533333-------3---|
Suggest correction
Give kudos to tab author, rate the tab!
1 2 3 4 5
comments
print report bad tab
guest
You may want to rate the tab now too:
select rating
Wanna post a correction for this tab? Suggest correction