Oops, an error
Loading. Please wait.

The Last Goodbye Bass Tab

100 views 1 this week
no commentswrite comment
1 2 3 4 5
3 more votes to show rating
add to favorites
launch autoscroll
font size
0
reset
guitar tuner
Autoscroll
slow
fast
+/-
esc
set tempo
stop
Help us to improve Ultimate-Guitar.com Take our survey!
×
Author
Tuning
D A D G B E
-------------------------------------------------------------------------------
                             THE LAST GOODBYE - The Blackout.
-------------------------------------------------------------------------------

Tabbed By : mariewong.





Tuning: Drop D.





Intro

G|------------------------------------------------|
D|------------------------------------------------|
A|--2(x16)----------------------------------------|
D|----------4(x13)--6(x3)--2(x16)--4(x13)--2(x3)--|



Verse

G|------------------|
D|------------------|
A|--2~--------------|
D|------4~--2~--6~--|

G|------------------------------------------------|
D|------------------------------------------------|
A|--2(x16)----------------------------------------|
D|----------4(x13)--6(x3)--2(x16)--6(x13)--8(x3)--|



Chorus

G|------------------------------------------------|
D|------------------------------------------------|
A|--2(x16)----------------------------------------|
D|----------4(x13)--6(x3)--2(x16)--4(x13)--2(x3)--|



Verse

G|------------------|
D|------------------|
A|--2~--------------|
D|------4~--2~--6~--|

G|------------------------------------------------|
D|------------------------------------------------|
A|--2(x16)----------------------------------------|
D|----------4(x13)--6(x3)--2(x16)--6(x13)--8(x3)--|



Chorus

G|------------------------------------------------|
D|------------------------------------------------|
A|--2(x16)----------------------------------------|  [x2]
D|----------4(x13)--6(x3)--2(x16)--4(x13)--2(x3)--|



Bridge

G|-------------------------------------------------------------|
D|-------------------------------------------------------------|
A|-------------------------------------------------------------|
D|--6(x9)--9(x7)--2(x16)----6(x9)--9(x7)--2(x9)--4(x4)--2(x3)--|

G|------------------------------------------------|
D|------------------------------------------------|
A|------------------------------------------------|
D|--9(x16)--4(x13)--6(x3)--2(x16)--4(x13)--2(x3)--|

G|-----------------------------------------|
D|-----------------------------------------|
A|-----------------------------------------|
D|--9(x16)--4(x13)--6(x3)--2(x16)--4(x16)--|



Chorus

G|------------------------------------------------|
D|------------------------------------------------|
A|--2(x16)----------------------------------------|  [x4]
D|----------4(x13)--6(x3)--2(x16)--4(x13)--2(x3)--|

G|------|
D|------|
A|--2~--|
D|------|





| /  slide up
| \  slide down
| h  hammer-on
| p  pull-off
| ~  vibrato
| +  harmonic
| x  Mute note
===============================================================================
Suggest correction
Give kudos to tab author, rate the tab!
1 2 3 4 5
comments
print report bad tab
guest
You may want to rate the tab now too:
select rating
Wanna post a correction for this tab? Suggest correction