Oops, an error
Loading. Please wait.

The Last Goodbye Tab

version 1
version 1

Whole song

1,863 views 1 this week
2 commentsread comments
1 2 3 4 5
1 last vote to show rating
add to favorites
launch autoscroll
font size
0
reset
how to read this tab
guitar tuner
Autoscroll
slow
fast
+/-
esc
set tempo
stop
Help us to improve Ultimate-Guitar.com Take our survey!
×
Author
Tabbed By: Butterworth95

I Learned This Song By Ear
Intro
Guitar: 1
E| --------------14-------------------14------- |
B| --12-12-11-12---12-11-12--12-11-12---12-11-- |
G| -------------------------------------------- |
D| -------------------------------------------- |
A| -------------------------------------------- |
D| -------------------------------------------- |

E| --------------14------------------14------------------14-------------------11-12-11----- |
B| --12-12-11-12---12-11-12--12-11-12--12-11--12-12-11-12---12-11-12--12-11-12---------12-- |
G| ---------------------------------------------------------------------------------------- |   x2
D| ---------------------------------------------------------------------------------------- |
A| ---------------------------------------------------------------------------------------- |
D| ---------------------------------------------------------------------------------------- |

Guitar: 2
E| ------------------------------------ |
B| ------------------------------------ |
G| --4--------------------------------- |   x2
D| --4-x16--4------6-----2------4------ |
A| --2------4-x13--6-x3--2-x16--4-x16-- |
D| ---------4------6-----2------4------ |

Verse
Guitar: 1 & 2
E| ------------------------------ |
B| ------------------------------ |
G| --4~-------------------------- |
D| --4~-----4~-----2~-----6~----- |
A| --2~-----4~-----2~-----6~----- |
D| ---------4~-----2~-----6~----- |

Guitar: 1 & 2 [Palm mute]
E| ------------------------------ |
B| ------------------------------ |
G| --4--------------------------- |
D| --4-x16--4------2------6------ |
A| --2------4-x16--2-x16--6-x16-- |
D| ---------4------2------6------ |

Chorus
Guitar: 1
E| --------------14------------------14------------------14-------------------11-12-11----- |
B| --12-12-11-12---12-11-12--12-11-12--12-11--12-12-11-12---12-11-12--12-11-12---------12-- |
G| ---------------------------------------------------------------------------------------- |   x2
D| ---------------------------------------------------------------------------------------- |
A| ---------------------------------------------------------------------------------------- |
D| ---------------------------------------------------------------------------------------- |

Guitar: 2
E| ------------------------------------ |
B| ------------------------------------ |
G| --4--------------------------------- |   x2
D| --4-x16--4------6-----2------4------ |
A| --2------4-x13--6-x3--2-x16--4-x16-- |
D| ---------4------6-----2------4------ |

Verse
Guitar: 1 & 2
E| ------------------------------ |
B| ------------------------------ |
G| --4~-------------------------- |
D| --4~-----4~-----2~-----6~----- |
A| --2~-----4~-----2~-----6~----- |
D| ---------4~-----2~-----6~----- |

Guitar: 1 & 2 [Palm mute]
E| ------------------------------ |
B| ------------------------------ |
G| --4--------------------------- |
D| --4-x16--4------2------6------ |
A| --2------4-x16--2-x16--6-x16-- |
D| ---------4------2------6------ |

Chorus
Guitar: 1
E| --------------14------------------14------------------14-------------------11-12-11----- |
B| --12-12-11-12---12-11-12--12-11-12--12-11--12-12-11-12---12-11-12--12-11-12---------12-- |
G| ---------------------------------------------------------------------------------------- |   x4
D| ---------------------------------------------------------------------------------------- |
A| ---------------------------------------------------------------------------------------- |
D| ---------------------------------------------------------------------------------------- |

Guitar: 2
E| ------------------------------------ |
B| ------------------------------------ |
G| --4--------------------------------- |
D| --4-x16--4------6-----2------4------ |   x4
A| --2------4-x13--6-x3--2-x16--4-x16-- |
D| ---------4------6-----2------4------ |

Middle Eight
Guitar:1
E| --
B| --12-12-12-----------------14-14-14-12b-- |
G| ----------13-13-13-11-11-11-------------- |
D| ----------------------------------------- |
A| ----------------------------------------- |
D| ----------------------------------------- |

Guitar: 2
E| ------------------------------------------------------------------- |
B| ------------------------------------------------------------------- |
G| ------------------------------------------------------------------- |   x2
D| --6-6-6-6-6-6-6-6-6-6-6-6-6-6-6-6-4-4-4-4-4-4-4-4-4-4-4-4-4-4-4-4-- |
A| --6-6-6-6-6-6-6-6-6-6-6-6-6-6-6-6-4-4-4-4-4-4-4-4-4-4-4-4-4-4-4-4-- |
D| --6-6-6-6-6-6-6-6-6-6-6-6-6-6-6-6-4-4-4-4-4-4-4-4-4-4-4-4-4-4-4-4-- |

Chorus
Guitar: 1
E| --------------14------------------14------------------14-------------------11-12-11----- |
B| --12-12-11-12---12-11-12--12-11-12--12-11--12-12-11-12---12-11-12--12-11-12---------12-- |
G| ---------------------------------------------------------------------------------------- |   x4
D| ---------------------------------------------------------------------------------------- |
A| ---------------------------------------------------------------------------------------- |
D| ---------------------------------------------------------------------------------------- |

Guitar: 2
E| ------------------------------------ |
B| ------------------------------------ |
G| --4--------------------------------- |
D| --4-x16--4------6-----2------4------ |   x4
A| --2------4-x13--6-x3--2-x16--4-x16-- |
D| ---------4------6-----2------4------ |

Outro
Guitar:1
E| --
B| --12-12-12-----------------14-14-14-12b-- |
G| ----------13-13-13-11-11-11-------------- |
D| ----------------------------------------- |
A| ----------------------------------------- |
D| ----------------------------------------- |

Guitar: 2
E| ------------------------------------------------------------------- |
B| ------------------------------------------------------------------- |
G| ------------------------------------------------------------------- |   x2
D| --6-6-6-6-6-6-6-6-6-6-6-6-6-6-6-6-4-4-4-4-4-4-4-4-4-4-4-4-4-4-4-4-- |
A| --6-6-6-6-6-6-6-6-6-6-6-6-6-6-6-6-4-4-4-4-4-4-4-4-4-4-4-4-4-4-4-4-- |
D| --6-6-6-6-6-6-6-6-6-6-6-6-6-6-6-6-4-4-4-4-4-4-4-4-4-4-4-4-4-4-4-4-- |

Suggest correction
Give kudos to tab author, rate the tab!
1 2 3 4 5
comments
print report bad tab
2 comments total.
0 reply
Faitout 31 Nov 27, 2011 09:31 AM

Great tab, just a couple of Typos. The Rhythm chorus should be repeated once and then twice, not twice and then four times. Also, on the Outro and Middle eight, it should be:
E| ---------------------------14-14-14-11b-- |
B| --12-12-12------------------------------- |
G| ----------13-13-13-11-11-11-------------- |
D| ----------------------------------------- |
A| ----------------------------------------- |
D| ----------------------------------------- |

0 reply
PostHardcore333 62 Jan 09, 2012 01:37 PM

Whats The Tunning?

guest
You may want to rate the tab now too:
select rating
Wanna post a correction for this tab? Suggest correction