Oops, an error
Loading. Please wait.

This Is Our Time Tab

640 views 1 this week
no commentswrite comment
1 2 3 4 5
please rate
add to favorites
launch autoscroll
font size
0
reset
how to read this tab
guitar tuner
Autoscroll
slow
fast
+/-
esc
set tempo
stop
Help us to improve Ultimate-Guitar.com Take our survey!
×
Author
Difficulty
Tuning
novice
D A D G B E
Tabbed By: Butterworth95

Tuning: Drop D

This is the first tab I’ve ever written and this is the first tab of this song on Ultimate Guitar

I learned this song by ear



Feedback
E| ------- |
B| ------- |
G| ------- |
D| --4---- |
A| --4---- |
D| --4---- |

Verse: 1
Guitar: 1
E| ------------------------------------------------------------------------------------- |
B| ------------------------------------------------------------------------------------- |
G| ------------------------------------------------------------------------------------- |
D| ----7----22--4--------7----22--4--------7----22--4--------7--------9999999999999999-- |
A| ----7----22--4--------7----22--4--------7----22--4--------7--------9999999999999999-- |
D| ----7----22--4--------7----22--4--------7----22--4--------7--------9999999999999999-- |

Guitar: 2 
E| ----------------------------------------------------- |
B| ----------------------------------------------------- |
G| ----9-9-9-9-9-9-9-9-9-9-9-9-9-9-9-9-9-9-9-9-9-9-9-9-- |
D| ----------------------------------------------------- |
A| ----------------------------------------------------- |
D| ----------------------------------------------------- | 

Chorus
Guitar: 1
E| ----------------------------------------------------------------- |
B| ----------------------------------------------------------------- |
G| ------------------------------------------------4-4-4-4-4-4-4-4-- |
D| --4-4-4-4-4-4-4-7-7-7-7-7-7-7-7-2-2-2-2-2-2-2-2-4-4-4-4-4-4-4-4-- |
A| --4-4-4-4-4-4-4-7-7-7-7-7-7-7-7-2-2-2-2-2-2-2-2-2-2-2-2-2-2-2-2-- |
D| --4-4-4-4-4-4-4-7-7-7-7-7-7-7-7-2-2-2-2-2-2-2-2------------------ |

Verse: 2
Guitar: 1
E| ------------------------------------------------------------------------------------- |
B| ------------------------------------------------------------------------------------- |
G| ------------------------------------------------------------------------------------- |
D| ----7----22--4--------7----22--4--------7----22--4--------7--------9999999999999999-- |
A| ----7----22--4--------7----22--4--------7----22--4--------7--------9999999999999999-- |
D| ----7----22--4--------7----22--4--------7----22--4--------7--------9999999999999999-- |

Guitar: 2 
E| ----------------------------------------------------- |
B| ----------------------------------------------------- |
G| ----9-9-9-9-9-9-9-9-9-9-9-9-9-9-9-9-9-9-9-9-9-9-9-9-- |
D| ----------------------------------------------------- |
A| ----------------------------------------------------- |
D| ----------------------------------------------------- | 

Guitar: 1 & 2 [Palm mute]
E| ------------------------------------------------------------------------------------- |
B| ------------------------------------------------------------------------------------- |
G| ------------------------------------------------------------------------------------- |
D| ----7----22--4--------7----22--4--------7----22--4--------7----22--9999999999999999-- |
A| ----7----22--4--------7----22--4--------7----22--4--------7----22--9999999999999999-- |
D| ----7----22--4--------7----22--4--------7----22--4--------7----22--9999999999999999-- |

Chorus
Guitar: 1
E| ----------------------------------------------------------------- |
B| ----------------------------------------------------------------- |
G| ------------------------------------------------4-4-4-4-4-4-4-4-- |
D| --4-4-4-4-4-4-4-7-7-7-7-7-7-7-7-2-2-2-2-2-2-2-2-4-4-4-4-4-4-4-4-- |
A| --4-4-4-4-4-4-4-7-7-7-7-7-7-7-7-2-2-2-2-2-2-2-2-2-2-2-2-2-2-2-2-- |
D| --4-4-4-4-4-4-4-7-7-7-7-7-7-7-7-2-2-2-2-2-2-2-2------------------ |

Middle Eight
Guitar: 1 & 2
E| ---------------------------------------------------------- |
B| ---------------------------------------------------------- |
G| ---------------------------------------------------------- |
D| --2--4-4-2-4-4--2--4-4-2-4-4----7--9-9-7-9-9--7--9-9-7-9-- |
A| --2--4-4-2-4-4--2--4-4-2-4-4----7--9-9-7-9-9--7--9-9-7-9-- |
D| --2--4-4-2-4-4--2--4-4-2-4-4----7--9-9-7-9-9--7--9-9-7-9-- |

E| ------------------------------------------------------------ |
B| ------------------------------------------------------------ |
G| ------------------------------------------------------------ |
D| --2--4-4-2-4-4--2--4-4-2-4-4----7--9-9-7-9-9--7--9-9-7-9-9-- |   x3
A| --2--4-4-2-4-4--2--4-4-2-4-4----7--9-9-7-9-9--7--9-9-7-9-9-- |
D| --2--4-4-2-4-4--2--4-4-2-4-4----7--9-9-7-9-9--7--9-9-7-9-9-- |

E| --------------------------------------------------------- |
B| --------------------------------------------------------- |
G| --------------------------------------------------------- |
D| --2--4-4-2-4-4--2--4-4-2-4-4----7--9-9-7-9-9--9-7-9-7-9-- |
A| --2--4-4-2-4-4--2--4-4-2-4-4----7--9-9-7-9-9--9-7-9-7-9-- |
D| --2--4-4-2-4-4--2--4-4-2-4-4----7--9-9-7-9-9--9-7-9-7-9-- |

Guitar: 2 
E| ----------------------------------------------------- |
B| ----------------------------------------------------- |
G| ----9-9-9-9-9-9-9-9-9-9-9-9-9-9-9-9-9-9-9-9-9-9-9-9-- |
D| ----------------------------------------------------- |
A| ----------------------------------------------------- |
D| ----------------------------------------------------- |

Chorus
Guitar: 1
E| ----------------------------------------------------------------- |
B| ----------------------------------------------------------------- |
G| ------------------------------------------------4-4-4-4-4-4-4-4-- |
D| --4-4-4-4-4-4-4-7-7-7-7-7-7-7-7-2-2-2-2-2-2-2-2-4-4-4-4-4-4-4-4-- |
A| --4-4-4-4-4-4-4-7-7-7-7-7-7-7-7-2-2-2-2-2-2-2-2-2-2-2-2-2-2-2-2-- |
D| --4-4-4-4-4-4-4-7-7-7-7-7-7-7-7-2-2-2-2-2-2-2-2------------------ |

Outro
Guitar: 1 & 2
E| ------------------------------------------------------------ |
B| ------------------------------------------------------------ |
G| ------------------------------------------------------------ |
D| --2--4-4-2-4-4--2--4-4-2-4-4----7--9-9-7-9-9--7--9-9-7-9-9-- |   x3
A| --2--4-4-2-4-4--2--4-4-2-4-4----7--9-9-7-9-9--7--9-9-7-9-9-- |
D| --2--4-4-2-4-4--2--4-4-2-4-4----7--9-9-7-9-9--7--9-9-7-9-9-- |

E| --------------------------------------------------------- |
B| --------------------------------------------------------- |
G| --------------------------------------------------------- |
D| --2--4-4-2-4-4--2--4-4-2-4-4----7--9-9-7-9-9--9-7-9-7-9-- |
A| --2--4-4-2-4-4--2--4-4-2-4-4----7--9-9-7-9-9--9-7-9-7-9-- |
D| --2--4-4-2-4-4--2--4-4-2-4-4----7--9-9-7-9-9--9-7-9-7-9-- |

Suggest correction
What's this?
You can suggest a correction to this tab. Community and Mods will review your correction and vote to approve or reject it.
comments
We did not receive enough feedback on this tab! Please rate:
print report bad tab
1 2 3 4 5
guest
You may want to rate the tab now too:
select rating
Please do not post tabs as comments. Select "correction" instead!