Oops, an error
Loading. Please wait.

Top Of The World Tab

version 1
version 1

Whole song

Interactive

4,466 views 6 this week
1 commentread comment
1 2 3 4 5
excellent!
x 5
add to favorites
launch autoscroll
font size
0
reset
how to read this tab
guitar tuner
Autoscroll
slow
fast
+/-
esc
set tempo
stop
Help us to improve Ultimate-Guitar.com Take our survey!
×
Author
-------------------------------------------------------------------------------
                             Top Of The World - The Blackout
-------------------------------------------------------------------------------
Tabbed by:brokenunder
Email:tears--dont--fall@hotmail.co.uk

Tuning:Drop D

another song off the new album its amazing.

Intro/Chorus

Lead
e|-16---13----------------16---13----------------13h14p13----13-14-----------|
B|----14---14----------------14---14-----------------------------------------|
G|------------13-15-13---------------13-15-13--------------13-------13-11----|
D|---------------------------------------------------------------------------|
A|---------------------------------------------------------------------------|
E|---------------------------------------------------------------------------|

rhythm
e|---------------------------------------------------------------------------|
B|---------------------------------------------------------------------------|
G|-66666666-----------------------888-101010---------------------------------|
D|-66666666-44444444-8888-6666-44-xxx-xxx------------------------------------|
A|-44444444-44444444-8888-6666-44-666-888------------------------------------|
E|----------44444444-8888-6666-44--------------------------------------------|
    Octaves only played first time  afterwards just strum the f# (4) chord

Verse

lead
e|---------------------------------------------------------------------------|
B|---------------------------------------------------------------------------|
G|--66666--------------------------------------------------------------------|
D|--xxxxx------listen for timings--------------------------------------------|
A|--44444--------------------------------------------------------------------|
E|---------------------------------------------------------------------------|
   Doesnt come in till second repeat of rhythm

rhythm
e|---------------------------------------------------------------------------|
B|---------------------------------------------------------------------------|
G|-666-666--------------------------666-666----------------------------------|
D|-666-666-444-444-888-886-444-446--666-666-444-444-888-886-4~---------------|
A|-444-444-444-444-888-886-444-446--444-444-444-444-888-886-4~---------------|
E|---------444-444-888-886-444-446----------444-444-888-886-4~---------------|

chorus 

verse

chorus

bridge

both
e|---------------------------------------------------------------------------|
B|---------------------------------------------------------------------------|
G|---------------------------------------------------------------------------|
D|--1111-3-4444--1111-3-4-444444444444444------------------------------------|
A|--1111-3-4444--1111-3-4-444444444444444------------------------------------|
E|--1111-3-4444--1111-3-4-444444444444444------------------------------------|
                          PM---------------|
then

rhythm
e|---------------------------------------------------------------------------|
B|---------------------------------------------------------------------------|
G|-66666666------------------------------------------------------------------|
D|-66666666-44444444-8888-6-4444---------------------------------------------|
A|-44444444-44444444-8888-6-4444------X2-------------------------------------|
E|----------44444444-8888-6-4444---------------------------------------------|

e|----16-14p13----------------16-14p13---------------------------------------|
B|-------------14-----X3---------------14------------------------------------|
G|-13------------13--------13-------------13-15-13---------------------------|
D|---------------------------------------------------------------------------|
A|---------------------------------------------------------------------------|
E|---------------------------------------------------------------------------|


e|---------------------------------------------------------------------------|
B|---------------------------------------------------------------------------|
G|-6-------------66666666----------------------------------------------------|
D|-6--4--8--64---66666666-44444444-8888-6666-4444----------------------------|
A|-4--4--8--64---44444444-44444444-8888-6666-4444----------------------------|
E|----4--8--64------------44444444-8888-6666-4444----------------------------|
                PM--------------------------------|

lead
e|---------------------------------------------------------------------------|
B|-/9---7/9--7/9-------------------------------------------------------------|
G|---------------------------------------------------------------------------|
D|---------------------------------------------------------------------------|
A|---------------------------------------------------------------------------|
E|---------------------------------------------------------------------------|
      Plays on the palm mute bit of the rhythm

chorus

outro
rhythm just ends on the f#(4) chord

lead
e|---------------------------------------------------------------------------|
B|---------------------------------------------------------------------------|
G|--6-6-6--------------------------------------------------------------------|
D|---6-6-6-play this over----------------------------------------------------|
A|---------------------------------------------------------------------------|
E|---------------------------------------------------------------------------|
   PM-----|

| /  slide up
| \  slide down
| h  hammer-on
| p  pull-off
| ~  vibrato
| +  harmonic
| x  Mute note
===============================================================================
Suggest correction
What's this?
You can suggest a correction to this tab. Community and Mods will review your correction and vote to approve or reject it.
comments
print report bad tab
1 comment total.
0 reply
Vortex_uk 207 wrote on July 27 2009, 07:24 am

you've written it as being drop D yet you've tabbed it as it's in Db, most of it is off mainly the intro

guest
You may want to rate the tab now too:
select rating
Please do not post tabs as comments. Select "correction" instead!