Oops, an error
Loading. Please wait.

Were Going To Hell So Bring The Sunblock Bass Tab

756 views 1 this week
no commentswrite comment
1 2 3 4 5
1 last vote to show rating
add to favorites
launch autoscroll
font size
0
reset
guitar tuner
Autoscroll
slow
fast
+/-
esc
set tempo
stop
Help us to improve Ultimate-Guitar.com Take our survey!
×
Author
Difficulty
Tuning
intermediate
C# G# C# F# A# D#
-----------------------------------------------------------------------------
	 We’re Goin’ To Hell... So Bring The Sunblock – The Blackout
-----------------------------------------------------------------------------

Tabbed By : kcaj6678
e-mail: jackknight1@hotmail.co.uk

Tuning: Drop C#

Intro: Come in after the drum build, at around 0:08
F#|------------------------|(X4)
C#|------------------------|
G#|------------------------|
C#|---3/5--0—3/5--33-------|

Verse:
F#|----------------------------------------------------| (X2)
C#|----------------------------------------------------|
G#|----------------------------------------------------|
C#|0-0-000-00000000--0-0-000-7755-0-0-000-7-5-3--------|

Chorus: 11s are eleven not 1
F#|----------------------------------------------------|(X2)
C#|----------------------------------------------------|
G#|----------------------------------------------------|
C#|0000-3/5555--0000-35555--99999999-1111111111111111--| 

Intro:
F#|------------------------|(X4)
C#|------------------------|
G#|------------------------|
C#|---3/5--0--3/5--33------|

Verse:
F#|---------------------------------------------|(X2)
C#|---------------------------------------------|
G#|---------------------------------------------|
C#|0-0-000-00000000--0-0-000-7755-0-0-000-7-5-3-| 

Chorus: 11s are eleven not 1
F#|-----------------------------------------------------|(X2)
C#|-----------------------------------------------------|
G#|-----------------------------------------------------|
C#|0000-3/5555--0000-3/5555--99999999-1111111111111111--| 


Bridge: 11s are eleven not 1
F#|----------------------------------------------|(X2)
C#|----------------------------------------------|
G#|----55555------77777-----99999-----1111111111-|
C#|0~-----------0~----------0~----------0~-------| 
Breakdown:
F#|-----------------------------|           |---|
C#|-----------------------------|           |---|
G#|-----------------------------|           |---|
C#|000000---00000--06--06-------|      (X4) |0~-|(only after the fourth time)

Let the last 0 ring until 2:15

Chorus: 11s are eleven not 1
F#|--------------------------------------------|
C#|--------------------------------------------|
G#|--------------------------------------------|
C#|-99999999-1111111111111111------------------|

11s are eleven not 1
F#|-----------------------------------------------------|(X2)
C#|-----------------------------------------------------|
G#|-----------------------------------------------------|
C#|0000-3/5555--0000-3/5555--99999999-1111111111111111--| 

Breakdown:
F#|--------------------------------------------------------------|(X2)
C#|--------------------------------------------------------------|
G#|--------------------------------------------------------------|
C#|000000---00000---------000000---00000--06--06-----------------|

F#|---------------------------------------------| (X2)|----|
C#|---------------------------------------------|     |----|
G#|---------------------------------------------|     |----|
C#|000000---00000---------000000---00000--01--01|     |-0x-|



| /  slide up
| \  slide down
| h  hammer-on
| p  pull-off
| ~  vibrato
| +  harmonic
| x  Mute note
=============================================================================

Suggest correction
Give kudos to tab author, rate the tab!
1 2 3 4 5
comments
print report bad tab
guest
You may want to rate the tab now too:
select rating
Wanna post a correction for this tab? Suggest correction