Oops, an error
Loading. Please wait.

Were Going To Hell So Bring The Sunblock Tab

version 1
version 1

Whole song

339 views 3 this week
1 commentread comment
1 2 3 4 5
please rate
add to favorites
launch autoscroll
font size
0
reset
how to read this tab
guitar tuner
Tab Pro tools
  • play this tab
  • loop segment
  • change instrument
  • show fretboard
  • metronome
×
Best way to learn
"Were Going To Hell So Bring The Sunblock"
Autoscroll
slow
fast
+/-
esc
set tempo
stop
Difficulty
Tuning
intermediate
C# G# C# F# A# D#
-----------------------------------------------------------------------------
        WE'RE GOING TO HELL... SO BRING THE SUNBLOCK - The Blackout
-----------------------------------------------------------------------------
Tabbed by: Kyle
E-mail: kylecarbutt@btinternet.com

Tuning: C# G# C# F# A# D#

Chuggy Intro
D#|-------------------------------------------------------------------------|
A#|-------------------------------------------------------------------------|
F#|-5/7----------5/7-----------------5/7------------------------------------|
c#|-------0-------------3-3-0--(x3)--------0------------3-3--(x1)-----------|
G#|-3/5---0--0-0-3/5-0--3-3-0--------3/5---0--0-0-------3-3-----------------|
C#|-----0-0--0-0-----0--3-3-0------------0-0--0-0-3h5-0-3-3-----------------|
        x x  x x     x      x            x x  x x   

OH!
D#|-------------------------------------------------------------------------|
A#|-------------------------------------------------------------------------|
F#|-5/7----------5/7-----------------5/7------------------------------------|
c#|-------0-------------3-3-0--(x3)--------0------------3-3--(x1)-----------|
G#|-3/5---0--0-0-3/5-0--3-3-0--------3/5---0--0-0-------3-3-----------------|
C#|-----0-0--0-0-----0--3-3-0------------0-0--0-0-3h5-0-3-3-----------------|
        x x  x x     x      x            x x  x x   

Verse
    They start to rise...          They're going to kill...
D#|-------------------------------------------------------------------------|
A#|-------------------------------------------------------------------------|
F#|-------------------------------------------------------------------------|
c#|---------3------------------------------3-------------3-3-3--------------|
G#|-----3-5---5-3-5--------------------3-5---5-3-5-3-5-3--------------------|
C#|-0-0----------------------------0-0--------------------------------------|
    x x                            x x

    Then from the hills...                  We're under attack...
D#|-------------------------------------------------------------------------|
A#|-------------------------------------------------------------------------|
F#|-----------------------------------------------13-12-10~-----------------|
c#|---------3---------------------------------------------------------------|
G#|-----3-5---5-3-5--5+-5+-5+--5+-5+-5+--------------------------------3----|
C#|-0-0------------------------------------------------------------3h5------|
    x x              x  x  x   x  x  x

      I see the bloodlust...        They want to stand...
D#|-------------------------------------------------------------------------|
A#|-------------------------------------------------------------------------|
F#|-------------------------------------------------------------------------|
c#|---------3------------------------------3-------------3-3-3--------------|
G#|-----3-5---5-3-5--------------------3-5---5-3-5-3-5-3--------------------|
C#|-0-0----------------------------0-0--------------------------------------|
    x x                            x x

    Hell comes to earth...             But I'll send it back...
D#|-------------------------------------------------------------------------|
A#|-------------------------------------------------------------------------|
F#|-----------------------------------------------13-12-10~-----------------|
c#|---------3---------------------------------------------------------------|
G#|-----3-5---5-3-5--5+-5+-5+--5+-5+-5+-------------------------------------|
C#|-0-0---------------------------------------------------------------------|
    x x              x  x  x   x  x  x

Chorus
    I'll never see you again         Never see you again 
D#|-------------------------------------------------------------------------|
A#|-------------------------------------------------------------------------|
F#|------------5-5-5--5-5-5-5-5------------5-5-5--5-5-5-5-5-----------------|
c#|--0--0-0-0--5-5-5--5-5-5-5-5---0--0-0-0-5-5-5--5-5-5-5-5-----------------|
G#|--0--0-0-0--3-3-3--3-3-3-3-3---0--0-0-0-3-3-3--3-3-3-3-3-----------------|
C#|--0--0-0-0---------------------0--0-0-0----------------------------------|

    Rise up...                       With your eyes open
D#|-------------------------------------------------------------------------|
A#|-------------------------------------------------------------------------|
F#|-------------------------------------------------------------------------|
c#|--8--8-8--8-8-8--8-8-8--8-8-8-----3--3-3--3-3-3--3-3-3-5-5-5-------------|
G#|--8--8-8--8-8-8--8-8-8--8-8-8-----3--3-3--3-3-3--3-3-3-5-5-5-------------|
C#|--8--8-8--8-8-8--8-8-8--8-8-8-----3--3-3--3-3-3--3-3-3-5-5-5-------------|

    This is the day of the dead       Come on and take my hand
D#|-------------------------------------------------------------------------|
A#|-------------------------------------------------------------------------|
F#|------------5-5-5--5-5-5-5-5------------5-5-5--5-5-5-5-5-----------------|
c#|--0--0-0-0--5-5-5--5-5-5-5-5---0--0-0-0-5-5-5--5-5-5-5-5-----------------|
G#|--0--0-0-0--3-3-3--3-3-3-3-3---0--0-0-0-3-3-3--3-3-3-3-3-----------------|
C#|--0--0-0-0---------------------0--0-0-0----------------------------------|

    Rise up...                       With your eyes open
D#|-------------------------------------------------------------------------|
A#|-------------------------------------------------------------------------|
F#|-------------------------------------------------------------------------|
c#|--8--8-8--8-8-8--8-8-8--8-8-8-----3--3-3--3-3-3--3-3-3-5-5-5-------------|
G#|--8--8-8--8-8-8--8-8-8--8-8-8-----3--3-3--3-3-3--3-3-3-5-5-5-------------|
C#|--8--8-8--8-8-8--8-8-8--8-8-8-----3--3-3--3-3-3--3-3-3-5-5-5-------------|


Riff
D#|-------------------------------------------------------------------------|
A#|-------------------------------------------------------------------------|
F#|-5/7----------5/7-----------------5/7------------------------------------|
c#|-------0-------------3-3-0--(x3)--------0------------3-3--(x1)-----------|
G#|-3/5---0--0-0-3/5-0--3-3-0--------3/5---0--0-0-------3-3-----------------|
C#|-----0-0--0-0-----0--3-3-0------------0-0--0-0-3h5-0-3-3-----------------|
        x x  x x     x      x            x x  x x   

Verse
    I'll rip your throat out...      I know the circus is coming...
D#|-------------------------------------------------------------------------|
A#|-------------------------------------------------------------------------|
F#|-------------------------------------------------------------------------|
c#|---------3------------------------------3-------------3-3-3--------------|
G#|-----3-5---5-3-5--------------------3-5---5-3-5-3-5-3--------------------|
C#|-0-0----------------------------0-0--------------------------------------|
    x x                            x x

    My simple shoes...                      Will make your move...
D#|-------------------------------------------------------------------------|
A#|-------------------------------------------------------------------------|
F#|-----------------------------------------------13-12-10~-----------------|
c#|---------3---------------------------------------------------------------|
G#|-----3-5---5-3-5--5+-5+-5+--5+-5+-5+--------------------------------3----|
C#|-0-0------------------------------------------------------------3h5------|
    x x              x  x  x   x  x  x

      I hate the way...           The teller of catastrophe...
D#|-------------------------------------------------------------------------|
A#|-------------------------------------------------------------------------|
F#|-------------------------------------------------------------------------|
c#|---------3------------------------------3-------------3-3-3--------------|
G#|-----3-5---5-3-5--------------------3-5---5-3-5-3-5-3--------------------|
C#|-0-0----------------------------0-0--------------------------------------|
    x x                            x x

    Grab what you need...                    And cut on through...
D#|-------------------------------------------------------------------------|
A#|-------------------------------------------------------------------------|
F#|-----------------------------------------------13-12-10~-----------------|
c#|---------3---------------------------------------------------------------|
G#|-----3-5---5-3-5--5+-5+-5+--5+-5+-5+-------------------------------------|
C#|-0-0---------------------------------------------------------------------|
    x x              x  x  x   x  x  x

Chorus
    I'll never see you again         Never see you again 
D#|-------------------------------------------------------------------------|
A#|-------------------------------------------------------------------------|
F#|------------5-5-5--5-5-5-5-5------------5-5-5--5-5-5-5-5-----------------|
c#|--0--0-0-0--5-5-5--5-5-5-5-5---0--0-0-0-5-5-5--5-5-5-5-5-----------------|
G#|--0--0-0-0--3-3-3--3-3-3-3-3---0--0-0-0-3-3-3--3-3-3-3-3-----------------|
C#|--0--0-0-0---------------------0--0-0-0----------------------------------|

    Rise up...                       With your eyes open
D#|-------------------------------------------------------------------------|
A#|-------------------------------------------------------------------------|
F#|-------------------------------------------------------------------------|
c#|--8--8-8--8-8-8--8-8-8--8-8-8-----3--3-3--3-3-3--3-3-3-5-5-5-------------|
G#|--8--8-8--8-8-8--8-8-8--8-8-8-----3--3-3--3-3-3--3-3-3-5-5-5-------------|
C#|--8--8-8--8-8-8--8-8-8--8-8-8-----3--3-3--3-3-3--3-3-3-5-5-5-------------|

    This is the day of the dead       Come on and take my hand
D#|-------------------------------------------------------------------------|
A#|-------------------------------------------------------------------------|
F#|------------5-5-5--5-5-5-5-5------------5-5-5--5-5-5-5-5-----------------|
c#|--0--0-0-0--5-5-5--5-5-5-5-5---0--0-0-0-5-5-5--5-5-5-5-5-----------------|
G#|--0--0-0-0--3-3-3--3-3-3-3-3---0--0-0-0-3-3-3--3-3-3-3-3-----------------|
C#|--0--0-0-0---------------------0--0-0-0----------------------------------|

    Rise up...                       With your eyes open
D#|-------------------------------------------------------------------------|
A#|-------------------------------------------------------------------------|
F#|-------------------------------------------------------------------------|
c#|--8--8-8--8-8-8--8-8-8--8-8-8-----3--3-3--3-3-3--3-3-3-5-5-5-------------|
G#|--8--8-8--8-8-8--8-8-8--8-8-8-----3--3-3--3-3-3--3-3-3-5-5-5-------------|
C#|--8--8-8--8-8-8--8-8-8--8-8-8-----3--3-3--3-3-3--3-3-3-5-5-5-------------|

Bridge
D#|-------------------------------------------------------------------------|
A#|-----(To get the best sound for that high pitched scream, take your------|
F#|-----guitar pick and strike the area between the nut and the tuning------|
c#|-0~-pegs, the tight held part of the string over the trust rod cover)----|
G#|-0~----------------------------------------------------------------------|
C#|-0~----------------------------------------------------------------------|

     THE DAY OF THE DEAD!
D#|-------------------------------------------------------------------------|
A#|-------------------------------------------------------------------------|
F#|-------------------------8-8-8-8---10101010---12-12-12-12---13-13-13-13--|
c#|--3h5-5-5--------------0-x-x-x-x-0-x-x-x-x--0-x--x--x--x--0-x--x--x--x---|
G#|--3h5-3-5--------------0-6-6-6-6-0-8-8-8-8--0-10-10-10-10-0-11-11-11-11--|
C#|--3h5---5--------------0---------0----------0-------------0--------------|

    And we watch you moving, we will shoot to kill
D#|-------------------------------------------------------------------------|
A#|-------------------------------------------------------------------------|
F#|---8-8-8-8---10101010---12-12-12-12---13b-13b-13b------------------------|
c#|-0-x-x-x-x-0-x-x-x-x--0-x--x--x--x----x---x---x--------------------------|
G#|-0-6-6-6-6-0-8-8-8-8--0-10-10-10-10---11b-11b-11b------------------------|
C#|-0---------0----------0--------------------------------------------------|

Breakdown
D#|-------------------------------------------------------------------------|
A#|-------------------------------------------------------------------------|
F#|-------------------------------------------------------------------------|
c#|-0-0--0--0-0-0-0-0----0-0--0-0-0----0-6~-0-6~---(x4)---------------------|
G#|-0-0--0--0-0-0-0-0----0-0--0-0-0----0-6~-0-6~----------------------------|
C#|-0-0--0--0-0-0-0-0----0-0--0-0-0----0-6~-0-6~----------------------------|
    x x  x  x x x x x    x x  x x x    x    x

Chorus
    Never see you again, never see you again (I don't know the lead bit)
D#|-------------------------------------------------------------------------|
A#|-------------------------------------------------------------------------|
F#|-------------------------------------------------------------------------|
c#|-0~----------------------------------------------------------------------|
G#|-0~----------------------------------------------------------------------|
C#|-0~----------------------------------------------------------------------|

D#|-------------------------------------------------------------------------|
A#|-------------------------------------------------------------------------|
F#|-------------------------------------------------------------------------|
c#|--8--8-8--8-8-8--8-8-8--8-8-8-----3--3-3--3-3-3--3-3-3-5-5-5-------------|
G#|--8--8-8--8-8-8--8-8-8--8-8-8-----3--3-3--3-3-3--3-3-3-5-5-5-------------|
C#|--8--8-8--8-8-8--8-8-8--8-8-8-----3--3-3--3-3-3--3-3-3-5-5-5-------------|

    This is the day of the dead       Come on and take my hand
D#|-------------------------------------------------------------------------|
A#|-------------------------------------------------------------------------|
F#|------------5-5-5--5-5-5-5-5------------5-5-5--5-5-5-5-5-----------------|
c#|--0--0-0-0--5-5-5--5-5-5-5-5---0--0-0-0-5-5-5--5-5-5-5-5-----------------|
G#|--0--0-0-0--3-3-3--3-3-3-3-3---0--0-0-0-3-3-3--3-3-3-3-3-----------------|
C#|--0--0-0-0---------------------0--0-0-0----------------------------------|

    Rise up...                       With your eyes open
D#|-------------------------------------------------------------------------|
A#|-------------------------------------------------------------------------|
F#|-------------------------------------------------------------------------|
c#|--8--8-8--8-8-8--8-8-8--8-8-8-----3--3-3--3-3-3--3-3-3-5-5-5-------------|
G#|--8--8-8--8-8-8--8-8-8--8-8-8-----3--3-3--3-3-3--3-3-3-5-5-5-------------|
C#|--8--8-8--8-8-8--8-8-8--8-8-8-----3--3-3--3-3-3--3-3-3-5-5-5-------------|

Breakdown 2 (Keep playing till the song finishes)
                                      THE DAY OF THE DEAD!
D#|-------------------------------------------------------------------------|
A#|-------------------------------------------------------------------------|
F#|-------------------------------------------------------------------------|
c#|-0-0--0--0-0-0-0-0----0-0--0-0-0-----------------------------------------|
G#|-0-0--0--0-0-0-0-0----0-0--0-0-0-----------------------------------------|
C#|-0-0--0--0-0-0-0-0----0-0--0-0-0-----------------------------------------|
    x x  x  x x x x x    x x  x x x   

                                      THE DAY OF THE DEAD!
D#|-------------------------------------------------------------------------|
A#|-------------------------------------------------------------------------|
F#|-------------------------------------------------------------------------|
c#|-0-0--0--0-0-0-0-0----0-0--0-0-0----0-1~-0-1~----------------------------|
G#|-0-0--0--0-0-0-0-0----0-0--0-0-0----0-1~-0-1~----------------------------|
C#|-0-0--0--0-0-0-0-0----0-0--0-0-0----0-1~-0-1~----------------------------|
    x x  x  x x x x x    x x  x x x    x    x

And thats the song! Any queries/questions/constructive criticisms are welcome.
Just pop us an Email and I'll do my best to respond ASAP.

************************************

| /   slide up
| \   slide down
| h   hammer-on
| p   pull-off
| ~   vibrato
| +   harmonic
| x   Mute note
| b   Bend
| pb  Pre-bend
| br  Bend release
| pbr Pre-bend release
| brb Bend release bend

************************************
comments
We did not receive enough feedback on this tab! Please rate:
print report bad tab
1 2 3 4 5
1 comment total.
0 reply
HalloHannes wrote on March 1 2014, 09:39 am

Thank you

I want to post or [tab]
guest
You may want to rate the tab now too:
select rating
Please do not post tabs as comments. Select "correction" instead!