Oops, an error
Loading. Please wait.

Youre Not Alone Chords

915 views 1 this week
no commentswrite comment
1 2 3 4 5
please rate
add to favorites
launch autoscroll
font size
0
reset
transpose
0
reset
display chords
guitar tuner
Autoscroll
slow
fast
+/-
esc
set tempo
stop
Help us to improve Ultimate-Guitar.com Take our survey!
×
Author
-------------------------------------------------------------------------------
                             YOU'RE NOT ALONE - The Blackout
-------------------------------------------------------------------------------
Tabbed by: roarlikeafish

Tuning: Standard (E-A-D-G-B-E)

I'm not entirely sure if this is 100% correct, but I think it's close. Feel free to correct me.

INTRO
e|---11---------------------------------------------------------------------11-|
B|-----------------------------------------------------------------------------|
G|13---------------13---------------13---------------13------------------13----|
D|--------10-11-13---------10-11-13---------10-11-13------------10-11-13-------|
A|-----------------------------------------------------------------------------|
E|-----------------------------------------------------------------------------|

Part played in the verses:
e|---------------------------------------------------------------------------|
B|----14-----------13-----------14-------------------------------------------|
G|-13-----------13-----------13----------------------------------------------|
D|---------------------------------------------------------------------------|
A|---------------------------------------------------------------------------|
E|---------------------------------------------------------------------------|

Pattern repeated in the last chorus:
e|------------------|
B|------------------|
G|----------13------|
D|-10-11-13---------|
A|------------------|
E|------------------|


CHORDS: 

Intro: G#   C#   G#   C#   G#

                  C#
The city seems so calm
                    G#
The bitter wind has blown your
             C#
Heart into a stone


But you just need to say
Fm            C#            G#
On and on and on and on and on

Yeah you just need to say
Fm            C#            D#
On and on and on and on and on

Yeah

    G# 
You know you're not alone
    C#
You know you're not alone
    Fm
You saved me
    C#
You saved me

G#   C#   G#

                C#
Walking on your own
                     G#
And you don't really know where
                  C#
Where you need to go


But you just need to say
Fm            C#            G#
On and on and on and on and on

You just need to say 
Fm            C#            D#
On and on and on and on and on

Yeah

    G#
You know you're not alone
    C#
You know you're not alone
    Fm
You saved  me
    C#
You saved me
    G#
You know you're not alone
    C#
You know you're not alone
    Fm
You saved  me
    C#
You saved me

D#            C#
On and on and on
                G#
You're all I've needed
D#                 C#
Know you know you know
               G#
It's all we've got
D#                  
Know I'll be there 
C#               G#
Just to stop the bleeding
D#                       
Know you'll be there
C#              G#      
Waiting for the drop

C#

You know you're not alone     

G#
    C#
You know you're not alone
    Fm
You saved me 
    C#
You saved me
    G#
You know you're not alone
    C#
You know you're not alone
    Fm
You saved me
    C#
You saved me

G#
Suggest correction
Give kudos to tab author, rate the tab!
1 2 3 4 5
comments
print report bad tab
guest
You may want to rate the tab now too:
select rating
Please do not post tabs as comments. Select "correction" instead!