Oops, an error
Loading. Please wait.

When Im Gone tab

90 views 1 this week
no commentswrite comment
1 2 3 4 5
3 more votes to show rating
add to favorites
×
Save as Personal and add changes to this tab that will be seen only by you. Learn more ›
×
You can save this tab as Personal to edit and correct it or add notes. All changes will be seen only by you. Learn more »
launch autoscroll
font size
0
reset
how to read this tab
guitar tuner
edit
Autoscroll
slow
fast
+/-
esc
set tempo
stop
Author
Difficulty
-----------------------------------------------------------------------------
                 When I'm Gone - The Blacksmith Experience
-----------------------------------------------------------------------------
Tabbed by: Michael Sveten
Email: smikeb04@yahoo.com

Tuning: Standard

Intro

e|-------------------------------------------------------------------------|
B|-------------------------------------------------------------------------|
G|-------------------------------------------------------------------------|
D|-------00-0---------00-0---------00-0---------00-0---------00-0----------|
A|---2222--2-2----2222--2-2----2222--2-2----2222--2-2----2222--2-2---------|
E|-3------------2------------0------------0------------3-------------------|

e|-------------------------------------------------------------------------|
B|-------------------------------------------------------------------------|
G|--------0----------------------------------------------------------------|
D|------00-0--------00-0---------0-----------------------------------------|
A|--2222----2---2222--2-2---2222-2-----------------------------------------|
E|-2-----------0-----------0-----3-----------------------------------------|

e|-------------------------------------------------------------------------|
B|-------------------------------------------------------------------------|
G|------------------------------------------000-0-0000-00-00-00-00-00------|
D|--0-00-000--0-00-000--0-00-000--0-00-000--222-2-2222-22-00-22-00-20------|
A|--2-22-222--2-22-222--2-22-222--2-22-222--333-2-2222-33-22-33-22-32------|
E|--3-33-333--3-33-333--2-22-222--2-22-222---------------------------------|

e|-------------------------------------------------------------------------|
B|-------------------------------------------------------------------------|
G|------------------------------------------000-0-0000-00-0-000-00-0-000---|
D|--0-00-000--0-00-000--0-00-000--0-00-000--222-2-2222-22-2-222-22-2-222---|
A|--2-22-222--2-22-222--2-22-222--2-22-222--333-2-2222-33-3-333-33-3-333---|
E|--3-33-333--3-33-333--2-22-222--2-22-222---------------------------------|

Verse 1

e|-------------------------------------------------------------------------|
B|-------------------------------------------------------------------------|
G|-------------------------------------0-00-000-0-00-000-0-00-000-0-00-000-|
D|-0-00-000-0-00-000-0-00-000-0-00-000-0-00-000-0-00-000-2-22-222-2-22-222-|
A|-2-22-222-2-22-222-2-22-222-2-22-222-2-22-222-2-22-222-3-33-333-3-33-333-|
E|-3-33-333-3-33-333-2-22-222-2-22-222-------------------------------------|

Chorus

e|-------------------------------------------------------------------------|
B|-------------------------------------------------------------------------|
G|------------------------------------------000-0-0000-00-00-00-00-00------|
D|--0-00-000--0-00-000--0-00-000--0-00-000--222-2-2222-22-00-22-00-20------|
A|--2-22-222--2-22-222--2-22-222--2-22-222--333-2-2222-33-22-33-22-32------|
E|--3-33-333--3-33-333--2-22-222--2-22-222---------------------------------|

e|-------------------------------------------------------------------------|
B|-------------------------------------------------------------------------|
G|------------------------------------------000-0-0000-00-0-000-00-0-000---|
D|--0-00-000--0-00-000--0-00-000--0-00-000--222-2-2222-22-2-222-22-2-222---|
A|--2-22-222--2-22-222--2-22-222--2-22-222--333-2-2222-33-3-333-33-3-333---|
E|--3-33-333--3-33-333--2-22-222--2-22-222---------------------------------|

e|-------------------------------------------------------------------------|
B|-------------------------------------------------------------------------|
G|-------------------------------------------------------------------------|
D|-------00-0---------00-0---------00-0---------00-0---------00-0----------|
A|---2222--2-2----2222--2-2----2222--2-2----2222--2-2----2222--2-2---------|
E|-3------------2------------0------------0------------3-------------------|

e|-------------------------------------------------------------------------|
B|-------------------------------------------------------------------------|
G|--------0----------------------------------------------------------------|
D|------00-0--------00-0---------0-----------------------------------------|
A|--2222----2---2222--2-2---2222-2-----------------------------------------|
E|-2-----------0-----------0-----3-----------------------------------------|

Verse 2

e|-------------------------------------------------------------------------|
B|-------------------------------------------------------------------------|
G|-------------------------------------0-00-000-0-00-000-0-00-000-0-00-000-|
D|-0-00-000-0-00-000-0-00-000-0-00-000-0-00-000-0-00-000-2-22-222-2-22-222-|
A|-2-22-222-2-22-222-2-22-222-2-22-222-2-22-222-2-22-222-3-33-333-3-33-333-|
E|-3-33-333-3-33-333-2-22-222-2-22-222-------------------------------------|

e|-------------------------------------------------------------------------|
B|-------------------------------------------------------------------------|
G|-------------------------------------0-00-000-0-00-000-0-00-0000---------|
D|-0-00-000-0-00-000-0-00-000-0-00-000-0-00-000-0-00-000-2-22-2222---------|
A|-2-22-222-2-22-222-2-22-222-2-22-222-2-22-222-2-22-222-3-33-3333---------|
E|-3-33-333-3-33-333-2-22-222-2-22-222-------------------------------------|

Chorus

Verse 3 

   (This life..)   (I'm running..) (I can't help..) (Is this..)

e|-------------------------------------------------------------------------|
B|-------------------------------------------------------------------------|
G|----------------------------------0~~--------------0~~-------------------|
D|--0~~-------------0~~-------------0~~--------------2~~-------------------|
A|--2~~-------------2~~-------------2~~--------------3~~-------------------|
E|--3~~-------------2~~----------------------------------------------------|

Chorus

Outro

e|-------------------------------------------------------------------------|
B|-------------------------------------------------------------------------|
G|-------------------------------------------------------------------------|
D|-------00-0---------00-0---------00-0---------00-0---------00-0----------|
A|---2222--2-2----2222--2-2----2222--2-2----2222--2-2----2222--2-2---------|
E|-3------------2------------0------------0------------3-------------------|

e|-------------------------------------------------------------------------|
B|-------------------------------------------------------------------------|
G|--------0----------------------------------------------------------------|
D|------00-0--------00-0---------0-----------------------------------------|
A|--2222----2---2222--2-2---2222-2-----------------------------------------|
E|-2-----------0-----------0-----3-----------------------------------------|



Verse 1

I've said it once before
I will say it again
This life I've come to love 
Has come crashing to an end

I've built myself up high
But nowhere worth the trip
As I look back on life
I think of all my friends

Chorus

When I'm gone
Will you remember me?
For all good things I've done

Or will I be
A shining example of 
What not to do?

Verse 2

For all that I loved
Well all that were true
If I would die today
Would it still affect you?

And all that I hate
Well all that was true
I just like to give out a big
"Fuck you"

Chorus

When I'm gone
Will you remember me?
For all good things I've done

Or will I be
A shining example of 
What not to do

Verse 3

This life has been used up
I'm living borrowed time
I can't help but think
Is this the end of the line?

Chorus

When I'm gone
Will you remember me?
For all good things I've done

Or will I be
A shining example of 
What not to do

            
            
Suggest correction
Creating personal tab
Creating personal tab
You can edit any tab online and save it as your Personal.

You can edit, replace or remove any tab part or add personal notes – all changes will be seen only by you.

Personal tabs can be accessed anytime from any device, even offline.
Learn more »
Give kudos to tab author, rate the tab!
1 2 3 4 5
comments
print report bad tab
guest
You may want to rate the tab now too:
select rating
Wanna post a correction for this tab? Suggest correction