Oops, an error
Loading. Please wait.

Just Ah Bass Tab

4 views 1 this week
no commentswrite comment
1 2 3 4 5
3 more votes to show rating
add to favorites
launch autoscroll
font size
0
reset
guitar tuner
Autoscroll
slow
fast
+/-
esc
set tempo
stop
Help us to improve Ultimate-Guitar.com Take our survey!
×
Author
Difficulty
novice
Tabbed by: 6METAL6BASSIST6
E-mail: petergriffinav@gmail.com

Tuning: EADG

G|----------------------------------------------------------------|
D|----------------------------------------------------------------|
A|----------------------------------------------------------------|
E|----------------------------------------------------------------|

G|----------------------------------------------------------------|
D|3-----------3---5-----------5-------------------7---------------|
A|--------------------------------5-----------5-----------3-------|
E|----------------------------------------------------------------|

0:11

G|----------------------------------------------------------------|
D|3-----------3---5-----------5-------------------7---------------| x3
A|--------------------------------5-----------5-----------3-------|
E|----------------------------------------------------------------|

G|--------------------------------------------------------------5-----|
D|3-----------3---5-----------5---3-----3-----5-----7-----8-----------|
A|--------------------------------------------------------------------|
E|--------------------------------------------------------------------|

0:31

G|------------------------------------------------------------------|
D|3-----------3-------------------3---------------3-----3-----3-----|
A|----------------3-------3-----------------------------------------|
E|------------------------------------------------------------------|

G|----------------------------------------------------------------------------|
D|5-----------5-------3---5---------------------------------------------------|
A|----------------5-----------5---4-------------------------------------------|
E|----------------------------------------------------------------------------|

G|----------------------------------------------------------------|
D|3-----------3---5-----------5-------------------7---------------|
A|--------------------------------5-----------5-----------3-------|
E|----------------------------------------------------------------|

0:49

G|----------------------------------------------------------------|
D|3-----------3---5-----------5-------------------7---------------| x3
A|--------------------------------5-----------5-----------3-------|
E|----------------------------------------------------------------|

G|--------------------------------------------------------------5-----|
D|3-----------3---5-----------5---3-----3-----5-----7-----8-----------|
A|--------------------------------------------------------------------|
E|--------------------------------------------------------------------|

1:10

G|------------------------------------------------------------------|
D|3-----------3-------------------3---------------3-----3-----3-----|
A|----------------3-------3-----------------------------------------|
E|------------------------------------------------------------------|

G|----------------------------------------------------------------------------|
D|5-----------5-------3---5---------------------------------------------------|
A|----------------5-----------5---4-------------------------------------------|
E|----------------------------------------------------------------------------|

G|--------------------------------7-----------7-----------5-------|
D|3-----------3---5-----------5-------------------7---------------|
A|----------------------------------------------------------------|
E|----------------------------------------------------------------|

1:27

G|--------------------------------7-----------7-----------5-------|
D|3-----------3---5-----------5-------------------7---------------| x3
A|----------------------------------------------------------------|
E|----------------------------------------------------------------|

G|--------------------------------------------------------------5-----|
D|3-----------3---5-----------5---3-----3-----5-----7-----8-----------|
A|--------------------------------------------------------------------|
E|--------------------------------------------------------------------|

1:48

G|------------------------------------------------------------------|
D|3-----------3-------------------3---------------3-----3-----3-----|
A|----------------3-------3-----------------------------------------|
E|------------------------------------------------------------------|

G|----------------------------------------------------------------------------|
D|5-----------5-------3---5---------------------------------------------------|
A|----------------5-----------5---4-------------------------------------------|
E|----------------------------------------------------------------------------|

G|--------------------------------7-----------7-----------5-------|
D|3-----------3---5-----------5-------------------7---------------|
A|----------------------------------------------------------------|
E|----------------------------------------------------------------|

2:02

G|--------------------------------7-----------7-----------5-------|
D|3-----------3---5-----------5-------------------7---------------| x3
A|----------------------------------------------------------------|
E|----------------------------------------------------------------|

G|--------------------------------------------------------5-------|
D|3-----------3---5-----------5---7-----------7---7---------------|
A|----------------------------------------------------------------|
E|----------------------------------------------------------------|

G|--------------------------------7-----------7-----------5-----------|
D|3-----------3---5-----------5-------------------7---------------3---| fades out here.
A|--------------------------------------------------------------------|
E|--------------------------------------------------------------------|
Suggest correction
Give kudos to tab author, rate the tab!
1 2 3 4 5
comments
print report bad tab
guest
You may want to rate the tab now too:
select rating
Wanna post a correction for this tab? Suggest correction