Oops, an error
Loading. Please wait.

Two Times bass

393 views 1 this week
no commentswrite comment
1 2 3 4 5
2 more votes to show rating
add to favorites
×
Save as Personal and add changes to this tab that will be seen only by you. Learn more ›
×
You can save this tab as Personal to edit and correct it or add notes. All changes will be seen only by you. Learn more »
launch autoscroll
font size
0
reset
guitar tuner
edit
Autoscroll
slow
fast
+/-
esc
set tempo
stop
Author
ok, so this is my first bass tab so i hope i do ok. im not 100% sure that this is right.
im tabbing this from the album version. to play the live version, just move everything 
whole step up.

intro
G|--------------------------------------------------------------------------|
D|------------------------------------x3------------------------------------|
A|----5----5----5------------3----------------------------------------------|
E|--------------------5-----------------------------------------------------|

Verse

there are 2 parts in the verse, and it goes like this

prt 1
voc. "cant get my mind off your photograph..."

G|--------------------------------------------------------------------------|
D|------------------------------------x4------------------------------------|
A|----5----5----5------------3----------------------------------------------|
E|--------------------5-----------------------------------------------------|

prt2
voc. "when i proposed to you, you just laughed..."

G|--------------------------------------------------------------------------|
D|-----------------------5--5--5--------3------5--5--5-------3--------------|
A|--5--5--5-------3-----------------5--------------------5------------------|
E|------------5-------------------------------------------------------------|

 |--------------------------------------------------------------------------|
 |--------------------------------------------------------------------------|
 |--5--5--5-------3---------------------------------------------------------|
 |------------5-------------------------------------------------------------|


pre-chorus

voc. "well i call you up on your telephone..."

G|--------------------------------------------------------------------------|
D|--------------------------------------------------------------------------|
A|----------------------------17-----------------5--5--5------3-------------|
E|---6--6---5--5-----/18(ring)---18--17--15----------------5----------------|


the chorus is basicly a combo. of verses part 1 & 2 and the pre-chorus. if you listen to 
song, you can figure it out.


there is a part near the end of the chorus where he starts singing over and over;
"dont want to fend from you..." and im pretty sure it goes something like this

G|--------------------------------------------------------------------------|
D|--------------------------------------------------------------------------|
A|---5---5---5-------3------------------------------------------------------|
E|---------------5--------6--6---1--1---------------------------------------|


and at the end of the chorus transitioning into the 2nd verse, it goes like this

G|--------------------------------------------------------------------------|
D|-------------------x4-----------------------------------------------------|
A|----15/17-----------------------------------------------------------------|
E|--------------------------------------------------------------------------|


ok so thats basicly it, if you have and editing you would like to tell me about that 
be great. enjoy


The Blakes website:

http://lightintheattic.net/releases/theblakes/

            
            
Suggest correction
Creating personal tab
Creating personal tab
You can edit any tab online and save it as your Personal.

You can edit, replace or remove any tab part or add personal notes – all changes will be seen only by you.

Personal tabs can be accessed anytime from any device, even offline.
Learn more »
Give kudos to tab author, rate the tab!
1 2 3 4 5
comments
print report bad tab
guest
You may want to rate the tab now too:
select rating
Wanna post a correction for this tab? Suggest correction