Oops, an error
Loading. Please wait.

Better Off Alone Tab

7 views 1 this week
no commentswrite comment
1 2 3 4 5
3 more votes to show rating
add to favorites
launch autoscroll
font size
0
reset
how to read this tab
guitar tuner
Autoscroll
slow
fast
+/-
esc
set tempo
stop
Help us to improve Ultimate-Guitar.com Take our survey!
×
Author
[Solo]

e|----12-12-12-12--10----------------------------------------------------10--|
B|--------------------12---12-12-12-12--10----12-12-12-12-10------10/12------|
G|------------------------------------------------------------12-------------|
D|---------------------------------------------------------------------------|
A|---------------------------------------------------------------------------|
E|---------------------------------------------------------------------------|

e|----12-12-12-12--10--------------------------------------------------------|
B|--------------------12---12-12-12-12--10----12-10-12-10--------------------|
G|------------------------------------------------------------12-------------|
D|---------------------------------------------------------------------------|
A|---------------------------------------------------------------------------|
E|---------------------------------------------------------------------------|



************************************

| /  Slide up

************************************
Suggest correction
Give kudos to tab author, rate the tab!
1 2 3 4 5
comments
print report bad tab
guest
You may want to rate the tab now too:
select rating
Wanna post a correction for this tab? Suggest correction