Oops, an error
Loading. Please wait.

Addicted Tab

1,096 views 3 this week
3 commentsread comments
1 2 3 4 5
1 last vote to show rating
add to favorites
×
Save as Personal and add changes to this tab that will be seen only by you. Learn more ›
×
You can save this tab as Personal to edit and correct it or add notes. All changes will be seen only by you. Learn more »
save as personal
new!
launch autoscroll
font size
0
reset
how to read this tab
guitar tuner
Autoscroll
slow
fast
+/-
esc
set tempo
stop
Author
song:   Addicted
artist: The Blank Theory
tabber: Kenny Burgess
email:  Fat105@aol.com


intro
d-------------------------------|
a-------------------------------|
f-------------------------------|
c-------------------------------|
g-------------------------------|
c-7p0--0-0-0-7p0--0-0-0--8-8-8--|


d-------------------------------|
a-------------------------------|
f-------------------------------|
c-------------------------------|
g-7-0--0-0-0-7-0--0-0-0--8-8-8--|
c-7-0--0-0-0-7-0--0-0-0--8-8-8--|


verse:
d-------------------------------|
a-------------------------------|
f--5--4-3---6---5---------------|
c-------------------------------|
g-------------------------------|
c-------------------------------|


chorus: STRUMS NOT INCLUDED
d-----------------------------|
a-----------------------------|
f-----------------------------|
c-----------------------------|
g-0-------8-------5--------7--|
c-0-------8-------5--------7--|
Suggest correction
Give kudos to tab author, rate the tab!
1 2 3 4 5
comments
print report bad tab
3 comments total.
0 reply
Fat105 170 Aug 22, 2003 08:00 PM

i forgot this part...sorry. play this after the firt chorus the p.m it after the second chorus.


d------------------------|
a------------------------|
f------------------------|
c------------------------|
g------------------------|
c-7p0-0-0-0-7p0-0-0-0-5--|

0 reply
365_days_gone 4,287 May 20, 2007 06:11 PM

2 tabs? wow...I guess they aren't well known.

0 reply
Violent-D13 10 Jul 17, 2007 01:00 AM

i learned this song easily and i like it but i really wish someone would tab out Midlle Of Nowhere for me so i can play it... if anyone can help me out let me know

guest
You may want to rate the tab now too:
select rating
Wanna post a correction for this tab? Suggest correction