Oops, an error
Loading. Please wait.

All That Glitters Tab

528 views 1 this week
3 commentsread comments
1 2 3 4 5
x 3
add to favorites
launch autoscroll
font size
0
reset
how to read this tab
guitar tuner
×
Best way to learn
"All That Glitters"
Autoscroll
slow
fast
+/-
esc
set tempo
stop
Author
The Bleeders are a New Zealand punk band that have just released their first EP on
ELEVENFIFTYSEVEN records Brilliant song. This song is out on the "So Lonely" single and
the "A Bleeding Heart" EP. I suggest you go out and buy the EP if you are a Bleeders fan.

Tuning: Standard

Verse x2
e|------------------------------|---------------------------------||
B|-----<5>---<5>---<5>----------|-----<5>---<5>---<5>-------------||
G|--------<5>---<5>----777------|--------<5>---<5>----777---------||
D|-444-----------------777-7777-|-444-----------------777-3333----||
A|-444-----------------555-7777-|-444-----------------555-3333----||
E|-222---------------------5555-|-222---------------------1111----||
"Let's burn the bridges..."

Chorus x2
e|----------------------------------------------------------------||
B|----------------------------------------------------------------||
G|----------7777--------------77779999----------------------------||
D|-9-7-4444-77777777-9-7-4444-77779999----------------------------||
A|-9-7-4444-55557777-9-7-4444-55557777----------------------------||
E|-7-5-2222-----5555-7-5-2222-------------------------------------||
 "I'm finding out quickly..."

Then play:
Verse x2 ("Your candy-coated life...")
Chorus x2 ("I'm finding out quickly...)

Interlude 1 - Guitar 1 - Keep playing this riff under Guitar 2
e|----------------------------------------------------------------||
B|----------------------------------------------------------------||
G|----------------------------------------------------------------||
D|------------------------------------2---------------------------||
A|-2---/5-4-0--4-4h5p4-----2----/5-4----4-4h5p4-------------------||
E|----------------------------------------------------------------||

Interlude 1 - Guitar 2
e|----------------------------------------------------------------||
B|-7-777-777-777-7-9-999-999-999-9-7-777-777-777-7-5-555-555-555-5||
G|----------------------------------------------------------------||
D|----------------------------------------------------------------||
A|----------------------------------------------------------------||
E|----------------------------------------------------------------||
"What are you living for..."

Then play:
Verse x2 ("Let's burn the bridges...")
Chorus x2 ("I'm finding out quickly...)

Interlude 2 - Guitar 1 - Keep playing this riff under Guitar 2
e|----------------------------------------------------------------||
B|----------------------------------------------------------------||
G|----------------------------------------------------------------||
D|------------------------------------2---------------------------||
A|-2---/5-4-0--4-4h5p4-----2----/5-4----4-4h5p4-------------------||
E|----------------------------------------------------------------||

Interlude 2 - Guitar 2 - Play this after Guitar 1 has played it's riff twice
e|----------------------------------------------------------------||
B|-10h12--/15-14----14/15\14-----repeat as needed-----------------||
G|---------------14-----------------------------------------------||
D|----------------------------------------------------------------||
A|----------------------------------------------------------------||
E|----------------------------------------------------------------||

Then play:

Chorus x4 hold last E5(ii)

Lyrics:

Let's burn the bridges,
That have brought us to our knees.
Let's find a way to control,
All our hopes and dreams.
Let's fight the fascists,
Arise and build anew.
As the big brother tries,
Tries to strangle you.

[CHORUS]
I'm finding out quickly,
All that glitters is not gold,
Is not gold.
I'm finding out quickly,
All that glitters is not gold,
Is not gold.

Your candy-coated life,
Denies reality.
Your eye stitched tight,
So you cannot see.
Your candy-coated life,
Denies reality.
Your eye stitched tight,
So you cannot see.

[CHORUS]
I'm finding out quickly,
All that glitters is not gold,
Is not gold.
I'm finding out quickly,
All that glitters is not gold,
Is not gold.

Let's burn the bridges,
That have brought us to our knees.
Let's find a way to control,
All our hopes and dreams.
Let's fight the fascists,
Arise and build anew.
As the big brother tries,
Tries to strangle you.

[CHORUS]
I'm finding out quickly,
All that glitters is not gold,
Is not gold.
I'm finding out quickly,
All that glitters is not gold,
Is not gold.
I'm finding out quickly,
All that glitters is not gold,
Is not gold.
I'm finding out quickly,
All that glitters is not gold,
Is not gold.



This tab is pretty good so don't rate it poorly. Sections that are a bit
sketchy are the Interlude 2 Guitar 2 part and the Interlude 1 Guitar 1 part
because I can't hear them well gue to my bung stereo but have a fiddle around
and it should be good.

Sweet as.

Zach

"10, 10, 10, 10 is for everything, Everything, EVERYthing, EVERYTHING."
Suggest correction
Give kudos to tab author, rate the tab!
1 2 3 4 5
comments
print report bad tab
3 comments total.
0 reply
jameseather 10 May 19, 2005 08:00 PM

Good and Accurate as well easy to read as well

0 reply
american-psycho 10 May 24, 2006 09:51 PM

perhaps chorus a bit off e|----------------------------------------------------------------||
B|----------------------------------------------------------------||
G|----------7777--------------77779999----------------------------||
D|-9-7-2222-77777777-9-7-2222-77779999----------------------------||
A|-9-7-2222-55557777-9-7-2222-55557777----------------------------||
E|-7-5-0000-----5555-7-5-0000-------------------------------------||

0 reply
american-psycho 10 May 24, 2006 09:52 PM

perhaps chorus a bit off
e|----------------------------------------------------------------||
B|----------------------------------------------------------------||
G|----------7777--------------77779999----------------------------||
D|-9-7-2222-77777777-9-7-2222-77779999----------------------------||
A|-9-7-2222-55557777-9-7-2222-55557777----------------------------||
E|-7-5-0000-----5555-7-5-0000-------------------------------------||

guest
You may want to rate the tab now too:
select rating
Wanna post a correction for this tab? Suggest correction