Oops, an error
Loading. Please wait.

Fantasy tab

3,189 views 1 this week
5 commentsread comments
1 2 3 4 5
x 7
add to favorites
×
Save as Personal and add changes to this tab that will be seen only by you. Learn more ›
×
You can save this tab as Personal to edit and correct it or add notes. All changes will be seen only by you. Learn more »
launch autoscroll
font size
0
reset
how to read this tab
guitar tuner
edit
Autoscroll
slow
fast
+/-
esc
set tempo
stop
Author
Difficulty
Song: Fantasy
Band: The Blizzards
Album: Public Display of Affection


                 INTRO  (Riff A)
e|-----4-------4-------4-------4-------4-------4-------4-------4---|
b|---5---5---5---5---5---5---5---5---5---5---5---5---5---5---5---5-|
g|-6-------6-------5-------5-------4-------4-------3-------3-------|
d|-----------------------------------------------------------------|
a|-----------------------------------------------------------------|
E|-----------------------------------------------------------------|

   Figure out the strumming pattern yourself,Its not that difficult!
e|-------------------------|
b|-------------------------|
g|-------------4-4-4-4-4-4-|
d|-4-4-4-4-4---4-4-4-4-4-4-|   repeat once
a|-4-4-4-4-4---2-2-2-2-2-2-|
E|-2-2-2-2-2---------------|


 Solo (when repeating above)

e|----------------------------------|
b|----------------------------------|
g|----------------------------------|
d|-2-4-2-4b(6)-4-2-4-2-1-1-1-1h2----|
a|------------------------------4~~-|
E|----------------------------------|

Its not perfect but its close.


VERSE 1 repeat Riff A


   I've got a new car

e|-------------------------|
b|-------------------------|
g|-------------4-4-4-4-4-4-|
d|-4-4-4-4-4---4-4-4-4-4-4-|   
a|-4-4-4-4-4---2-2-2-2-2-2-|
E|-2-2-2-2-2---------------|


   Let's go for a ride

e|-------------------------|
b|-------------------------|
g|-------------4-4-4-4-4-4-|
d|-4-4-4-4-4---4-4-4-4-4-4-|   
a|-4-4-4-4-4---2-2-2-2-2-2-|
E|-2-2-2-2-2---------------|


      VERSE 2 (With Riff A)

  You know
  im not very skilled at the art of seduction

e|-------------------------------------------|
b|-------------------------------------------|
g|-6~~-----------------------8~~-------------|
d|-4~~(let ring)-------------8~~-------------|
a|-4~~-----------------------6~~-------------|
E|-------------------------------------------|


You could stamp it on my forehead and i still wouldnt catch on

e|------------------------------------------------------------|
b|------------------------------------------------------------|
g|--9~~-------------------------------11~~--------------------|
d|--9~~-------------------------------11~~--------------------|
a|--7~~--------------------------------9~~--------------------|
E|------------------------------------------------------------|


  well why cant you see

e|-------------------------|
b|-------------------------|
g|-------------4-4-4-4-4-4-|
d|-4-4-4-4-4---4-4-4-4-4-4-|   
a|-4-4-4-4-4---2-2-2-2-2-2-|
E|-2-2-2-2-2---------------|


  What your doing to me

e|-------------------------|
b|-------------------------|
g|-------------4-4-4-4-4-4-|
d|-4-4-4-4-4---4-4-4-4-4-4-|   
a|-4-4-4-4-4---2-2-2-2-2-2-|
E|-2-2-2-2-2---------------|



    CHORUS

You are my fantasy 
e|----------------| 
b|----------------| 
g|-9~~~-----------| 
d|-9~~~-----------| 
a|-7~~~-----------| 
E|----------------| 

(during chorus in background)
e|-------------|
b|-------------|
g|-9-6-9-6-9-6-| (repeat during chorus until end)
d|-9-6-9-6-9-6-|
a|-7-4-7-4-7-4-|
E|-------------|

        VERSE 3
 The temperature is rising (rising) (rising)....
e|----------------------------------------------------------------|
b|----6-------------6------6---------6------6------6------6------6|
g|----6-------------6------6---------6------6------6------6------6|
d|----4-------------4------4---------4------4------4------4------4|
a|----------------------------------------------------------------|
E|----------------------------------------------------------------|


    I stalk you all night 

e|-------------------------|
b|-------------------------|
g|-------------4-4-4-4-4-4-|
d|-4-4-4-4-4---4-4-4-4-4-4-|   
a|-4-4-4-4-4---2-2-2-2-2-2-|
E|-2-2-2-2-2---------------|

   If you put up a fight

e|-------------------------|
b|-------------------------|
g|-------------4-4-4-4-4-4-|
d|-4-4-4-4-4---4-4-4-4-4-4-|   
a|-4-4-4-4-4---2-2-2-2-2-2-|
E|-2-2-2-2-2---------------|


  you know
   my girl friend...
  
g|-----------------------------------------|
d|-----------------------------------------|
a|-4-4-4-4/3-3-3-3-3-3/2-2-2-2-2-----------| < palm mute
E|-------------------------------2-2-2-2-2-|

 
You put on a voice

e|-------------------------|
b|-------------------------|
g|-------------4-4-4-4-4-4-|
d|-4-4-4-4-4---4-4-4-4-4-4-|   
a|-4-4-4-4-4---2-2-2-2-2-2-|
E|-2-2-2-2-2---------------|

Like I have a choice

e|-------------------------|
b|-------------------------|
g|-------------4-4-4-4-4-4-|
d|-4-4-4-4-4---4-4-4-4-4-4-|   
a|-4-4-4-4-4---2-2-2-2-2-2-|
E|-2-2-2-2-2---------------|


Chorus Repeat

 BRIDGE 

  Woah! So give us a go Hey! Hey!        
                                 repeat 1st n 2nd time
e|------------------------------------------|
b|------------------------------------------|
g|-000000000000000000-5555555555-4444444444-|
d|-222222222222222222-5555555555-4444444444-| 
                
            
            
Suggest correction
Creating personal tab
Creating personal tab
You can edit any tab online and save it as your Personal.

You can edit, replace or remove any tab part or add personal notes – all changes will be seen only by you.

Personal tabs can be accessed anytime from any device, even offline.
Learn more »
comments
print report bad tab
5 comments total. Showing first comments.
0 reply
Nig 10 Jun 12, 2007 11:53 AM

Good first tab.

0 reply
-Zeppelin-II- 10 Aug 06, 2007 05:54 AM

Thanky!!

0 reply
paulbrano94 10 May 04, 2008 12:48 PM

Not bad =l

guest
You may want to rate the tab now too:
select rating
Wanna post a correction for this tab? Suggest correction