Oops, an error
Loading. Please wait.

Trouble tab

793 views 1 this week
3 commentsread comments
1 2 3 4 5
2 more votes to show rating
add to favorites
×
Save as Personal and add changes to this tab that will be seen only by you. Learn more ›
×
You can save this tab as Personal to edit and correct it or add notes. All changes will be seen only by you. Learn more »
launch autoscroll
font size
0
reset
how to read this tab
guitar tuner
edit
Autoscroll
slow
fast
+/-
esc
set tempo
stop
Author
-------------------------------------------------------------------------------
                             Trouble - The Blizzards
-------------------------------------------------------------------------------
Tabbed by:Rob McGowan
Email: Randomlyrob@hotmail.com
Link To Official Site: Http://http://www.theblizzards.ie/

Tuning:EADGBe

Intro
e|---5------4------4------2-------|
B|---5------4------4------2-------|
G|---6------5------6------4-------|(x4)
D|---7-(x8)-6-(x8)-6-(x8)-4-(x8)--|
A|---7------6------4------2-------|
E|---5------4------4------2-------|

Verse
e|---4-4-4---------------------------------------------|
B|---4-4-4---------------------------------------------|
G|---6-6-6--(x8)---------------------------------------|
D|---6-6-6---------------------------------------------|
A|---4-4-4---------------------------------------------|
E|---4-4-4---------------------------------------------|

 "Oh my life is so unpredictable"
e|---4-----------------------------|
B|---4-----------------------------|
G|---6-(x8)------------------------|
D|---7-----------------------------|
A|---7-----------------------------|
E|---4-----------------------------|

Pre-Chorus
e|---5------4------4------2-------|
B|---5------4------4------2-------|
G|---6------5------6------4-------|(x2)
D|---7-(x8)-6-(x8)-6-(x8)-4-(x8)--|
A|---7------6------4------2-------|
E|---5------4------4------2-------|

Chorus
e|---4------4------5------7-------4------4------5------3-------|
B|---4------4------5------7-------4------4------5------3-------|
G|---5------6------6------8-------5------6------6------5-------|
D|---6-(x8)-6-(x3)-7-(x3)-9-(x16)-6-(x8)-6-(x3)-7-(x3)-5-(x8)--|
A|---6------4------7------9-------6------4------7------3-------|
E|---4------4------5------7-------4------4------5--------------|

Verse
e|----------------------------4-------4-4------|
B|----------------------------4-------4-4------|
G|---6-5-4-3-2-3-4-5-6--------5-------6-6------|
D|---6-5-4-3-2-3-4-5-6-(x2)---6-(x8)--6-6-(x2)-|
A|---4-3-2-1-0-1-2-3-4--------6-------4-4------|
E|----------------------------4-------4-4------|

Chorus
e|---4------4------5------7------|     |-4------4------5------3-------|
B|---4------4------5------7------|     |-4------4------5------3-------|
G|---5------6------6------8------|     |-5------6------6------5-------|
D|---6-(x8)-6-(x3)-7-(x3)-9-(x16)|(x3) |-6-(x8)-6-(x3)-7-(x3)-5-(x8)--|
A|---6------4------7------9------|     |-6------4------7------3-------|
E|---4------4------5------7------|     |-4------4------5--------------|

Repeat Chorus Until End

| /  slide up
| \  slide down
| h  hammer-on
| p  pull-off
| ~  vibrato
| +  harmonic
| x  Mute note
===============================================================================
Suggest correction
Creating personal tab
Creating personal tab
You can edit any tab online and save it as your Personal.

You can edit, replace or remove any tab part or add personal notes – all changes will be seen only by you.

Personal tabs can be accessed anytime from any device, even offline.
Learn more »
Give kudos to tab author, rate the tab!
1 2 3 4 5
comments
print report bad tab
3 comments total.
0 reply
-Zeppelin-II- 10 Apr 17, 2007 09:11 AM

PLEASE TAB MORE SONGS!!!!!!!

0 reply
catzeppelin 10 May 02, 2007 02:23 AM

cheers.

0 reply
markydoyle11 10 Aug 26, 2008 03:07 AM

gud tab but i tink the intro chords are A, G#, C#m and B

guest
You may want to rate the tab now too:
select rating
Wanna post a correction for this tab? Suggest correction