Oops, an error
Loading. Please wait.

Suspicious Character Bass

1,570 views 1 this week
2 commentsread comments
1 2 3 4 5
2 more votes to show rating
add to favorites
launch autoscroll
font size
0
reset
guitar tuner
×
Best way to learn
"Suspicious Character"
Autoscroll
slow
fast
+/-
esc
set tempo
stop
Author
Difficulty
advanced
Hi this is the bass tab to the blood arm surspicious carracter

G-----------------|
D-----2-----2-----|
A--3-5-5-3-5-5-3--|
E-5-------------5-|

E-5-5-5-5 two second pause 5-5-5-5-3 X2

G-----------------|
D-----2-----2-----|
A--3-5-5-3-5-5-3--|
E-5-------------5-|

G-------------------|
D---------2-2-2-2---|
A----------------5--| X2
E-5-5-3-33----------|

G-----------------|
D-----2-----2-----|
A--3-5-5-3-5-5-3--|
E-5-------------5-|

E -5-5-5-5-3-3-3-3

A -5-5-5-5-3-3-3-3

G-----------------|
D-----2-----2-----|
A--3-5-5-3-5-5-3--|
E-5-------------5-|
Suggest correction
Give kudos to tab author, rate the tab!
1 2 3 4 5
comments
print report bad tab
2 comments total.
0 reply
Dinkydaisy 103 Jun 14, 2007 05:45 AM

Cheers for this, been looking for bloody ages and couldn't be arsed to work it out =p
I think there's a few bits missing, but they're not hard to work out. Nice job.

0 reply
blackswords 31 Aug 22, 2007 01:53 PM

c'est marrant de mettre de la basse pour une musique sans bassiste (je les ai vu en concert, c'est que du synthé pour la basse). Mais bon, c'est quand même ça

guest
You may want to rate the tab now too:
select rating
Wanna post a correction for this tab? Suggest correction