Oops, an error
Loading. Please wait.

Dying Day Bass Tab

73 views 1 this week
no commentswrite comment
1 2 3 4 5
please rate
add to favorites
launch autoscroll
font size
0
reset
guitar tuner
Autoscroll
slow
fast
+/-
esc
set tempo
stop
Help us to improve Ultimate-Guitar.com Take our survey!
×
The Blue Bloods
Death of a Salesmen
Dying Day

Intro:
---------------------------------------------------------------------|
---------------------------------------------------------------------|
---0-0-0-0-0-0-0-0-----------------2-2-2-2-2-2-2-2-------------------| x2
-------------------0-0-0-0-0-0-0-0-----------------3-3-----3-3-------|


Verse:
-------------------------------------|
-------------------------------------|
---0-0-0-0---------2-2-2-2-----------| x4
-----------0-0-0-0---------3-3-3-3---|


Pre-Chorus:
---------------------------------------------------------------------|
-----------0-0-0-0-------------------------0-0-0-0-2-2-2-2-2-2-2-2---|
-------------------0-0-0-0-2-2-2-2-----------------------------------|
---2-2-2-2-------------------------2-2-2-2---------------------------|


Chorus:
-------------------------------------|
-------------------0-0-0-0-0-0-0-0---|
---0-0-0-0-2-2-2-2-------------------| x3
-------------------------------------|


-------------------------------------|
-------------------0-0-0-0-0-0-0-0---|
---0-0-----2-2-----------------------| x1
-------------------------------------|
Suggest correction
Give kudos to tab author, rate the tab!
1 2 3 4 5
comments
print report bad tab
guest
You may want to rate the tab now too:
select rating
Wanna post a correction for this tab? Suggest correction