Oops, an error
Loading. Please wait.

Left Out In The Cold Bass Tab

115 views 1 this week
no commentswrite comment
1 2 3 4 5
please rate
add to favorites
launch autoscroll
font size
0
reset
guitar tuner
Autoscroll
slow
fast
+/-
esc
set tempo
stop
Help us to improve Ultimate-Guitar.com Take our survey!
×
The Blue Bloods
Death of a Salesman
Left Out in the Cold

Intro/Verse:
---------------------------------------------------------------------|
---2-2-2-2-2-2-2-2---------------2---------------2-------------------|
-------------------0-0-0-0-0-0-0---2-2-2-2-2-2-2---0-0-0-0-0-0-0-0---| x 8
---------------------------------------------------------------------|


Chorus:
---------------------------------------------------------------------|
---2-2-2-2-2-2-2-2---------------2-----------------------------------|
-------------------4-4-4-4-4-4-4---2-2-2-2-2-2-2-2-0-0-0-0-2-2-2-2---| x2
---------------------------------------------------------------------|


Bridge:
-------------------------------------------------------------|
-------------------2---2-2---------2-2-2-2-------------------|
---4-4-4-4-4-4-4-4---2-----0-0-0-0---------2-2-2-2-2-2-2-2---| x2
-------------------------------------------------------------|

Order:
Intro/Verse x8
Chorus x2
Intro/Verse x2
Chorus x2
Bridge x2
Chorus x2
Suggest correction
Give kudos to tab author, rate the tab!
1 2 3 4 5
comments
print report bad tab
guest
You may want to rate the tab now too:
select rating
Wanna post a correction for this tab? Suggest correction