Oops, an error
Loading. Please wait.

Black Holes tab

1,901 views 36 this week
4 commentsread comments
1 2 3 4 5
x 4
add to favorites
×
Save as Personal and add changes to this tab that will be seen only by you. Learn more ›
×
You can save this tab as Personal to edit and correct it or add notes. All changes will be seen only by you. Learn more »
launch autoscroll
font size
0
reset
how to read this tab
guitar tuner
edit
Autoscroll
slow
fast
+/-
esc
set tempo
stop
Author
Difficulty
[Intro]

e|---------------------------------------------|
B|-----------------------10-----10--------0----|
G|--7-7-7-7-7--6-6-6--11-----11-----11--1---1--|
D|---------------------------------------------|
A|---------------------------------------------|
E|--7-7-7-7-7--5-5-5--10-10--10-10--10--0-0-0--|

e|---------------------------------------------|
B|-----------------------10-----10--------0----|
G|--7-7-7-7-7--6-6-6--11-----11-----11--1------|
D|---------------------------------------------|
A|---------------------------------------------|
E|--7-7-7-7-7--5-5-5--10-10--10-10--10--0-0----|


[Bridge]

e|-------------------------------------------------|
B|-------------------------------------------------|
G|-------------------------------------------------|
D|--5-|x8--7-|x8---7\-9--7\-9--7\-9--5-5-----|-------|
A|--5-|----7-|-----7\-9--7\-9--7\-9--5-5-2-2-|x2-----|
E|--3-|----5-|-----5\-7--5\-9--5\-9--3-3-0-0-|-------|


 [Verse]
         
e|-------------------------------------------------------------------------------|
B|-------------------------------------------------------------------------------|
G|-------------------------------------------------------------------------------|
D|-------------------------------------------------------------------------------|
A|--x-x-x-x-x-x-x-x--x--x-x-x-x-x-x-x-x--x-x-x-x---x-x-x-x---x-x-x-x-x-x-x-x-x-x-|
E|--7-7-7-7-7-7-7-7-5h7-7-7-7-7-7-7-7-7--0-0-0-0---3-3-3-3---7-7-7-7-7-7-7-7-5h7-|


e|-------------------------------------------------------------------------------|
B|-------------------------------------------------------------------------------|
G|-------------------------------------------------------------------------------|
D|-------------------------------------------------------------------------------|
A|--x-x-x-x-x-x-x-x--x--x-x-x-x-x-x-x-x--x-x-x-x---x-x-x-x---x-x-x-x-x-x-x-x-----|
E|--7-7-7-7-7-7-7-7-5h7-7-7-7-7-7-7-7-7--0-0-0-0---3-3-3-3---7-7-7-7-7-7-7-7-----|


 [Chorus]

e|----------------------------------------------------------|
B|----------------------------------------------------------|
G|---4-|----6-|----8-|-----11-|----4-|-----6-|--------------|
D|---5-|x8--7-|x8--9-|x8---12-|x8--5-|x8---7-|x8------------|
A|---5-|----7-|----9-|-----12-|----5-|-----7-|--------------|
E|---3-|----5-|----7-|-----10-|----3-|-----5-|--------------|


e|----------------------------------------------------------------------|
B|----------------------------------------------------------------------|
G|----------------------------------------------------------------------|
D|----------------------------------------------------------------------|
A|--x-x-x-x-x-x-x-x---x-x-x-x-x-x-x-x-x-xxxxxx--------------------------|
E|--7-7-7-7-7-7-7-7-5h7-7-7-7-7-7-7-7-7-xxxxxx--------------------------|
                                        dududu

 [Verse 2]

e|------------------------------------------------------------------------------------------------|
B|------------------------------------------------------------------------------------------------|
G|------------------------------------------------------------------------------------------------|
D|------------------------------------------------------------------------------------------------|
A|--9-9-9-9-9-9-9-9--8\-9--9-9-9-9-9-9-9-9-2-2-2-2-5-5-5-5-7-9-9-9-9-9-9-9-9-9-8\-9---------------|
E|--7-7-7-7-7-7-7-7--6\-7--7-7-7-7-7-7-7-7-0-0-0-0-3-3-3-3-5-7-7-7-7-7-7-7-7-7-6\-7---------------|

e|------------------------------------------------------------------------------------------------|
B|------------------------------------------------------------------------------------------------|
G|------------------------------------------------------------------------------------------------|
D|------------------------------------------------------------------------------------------------|
A|--9-9-9-9-9-9-9-9--8\-9--9-9-9-9-9-9-9-9-2-2-2-2-5-5-5-5-7-9-9-9-9-9-9-9-9-9--------------------|
E|--7-7-7-7-7-7-7-7--6\-7--7-7-7-7-7-7-7-7-0-0-0-0-3-3-3-3-5-7-7-7-7-7-7-7-7-7--------------------|


 [Chorus 2]

e|---------------------------------------------------------|
B|---------------------------------------------------------|
G|---4-|----6-|----8-|-----11-|----4-|----6-|-----1-|------|
D|---5-|x8--7-|x8--9-|x8---12-|x8--5-|x8--7-|x8---2-|x8----|
A|---5-|----7-|----9-|-----12-|----5-|----7-|-----2-|------|
E|---3-|----5-|----7-|-----10-|----3-|----5-|-----0-|------|


e|---------------------------------------------|
B|-----------------------10-----10--------0----|
G|--7-7-7-7-7--6-6-6--11-----11-----11--1---1--|
D|---------------------------------------------|
A|---------------------------------------------|
E|--7-7-7-7-7--5-5-5--10-10--10-10--10--0-0-0--|

e|---------------------------------------------|
B|-----------------------10-----10--------0----|
G|--7-7-7-7-7--6-6-6--11-----11-----11--1---1--|
D|---------------------------------------------|
A|---------------------------------------------|
E|--7-7-7-7-7--5-5-5--10-10--10-10--10--0-0-0--|

e|--------------------------------------------|
B|-----------------------10-----10--------0---|
G|--7-7-7-7-7--6-6-6--11-----11-----11--1-----|
D|--------------------------------------------|
A|--------------------------------------------|
E|--7-7-7-7-7--5-5-5--10-10--10-10--10--0-0---|


[Bridge 2]

e|--------------------------------------------------|
B|--------------------------------------------------|
G|--------------------------------------------------|
D|--5-|x8--7-|x8---7\-9--7\-9--7\-9--5-5------------|
A|--5-|----7-|-----7\-9--7\-9--7\-9--5-5-2-2--------|
E|--3-|----5-|-----5\-7--5\-9--5\-9--3-3-0-0--------|

e|--------------------------------------------------|
B|--------------------------------------------------|
G|--------------------9B----------------------------|
D|----7\-9------7\-9-----7\-9--9B--5-5--------------|
A|----7\-9------7\-9-----7\-9------5-5-2-2----------|
E|----5\-7--7B--5\-9-----5\-9------3-3-0-0----------|

e|----------------------------------------------------------------|
B|----------------------------------------------------------------|
G|----------------------------------------------------------------| x2
D|----7\-9---7777---7\-9---7777---7\-9---7777---5-5---------------|
A|----7\-9---7777---7\-9---7777---7\-9---7777---5-5-2-2-----------|
E|----5\-7---5555---5\-9---5555---5\-9---5555---3-3-0-0-----------|
             dudu          dudu          dudu


[Chorus 3]

e|--------------------------------------------------------------|
B|--------------------------------------------------------------|
G|---4-|----6-|----8-|-----11-|----4-|----6-|-----1-|-----------|
D|---5-|x8--7-|x8--9-|x8---12-|x8--5-|x8--7-|x8---2-|x8---------|
A|---5-|----7-|----9-|-----12-|----5-|----7-|-----2-|-----------|
E|---3-|----5-|----7-|-----10-|----3-|----5-|-----0-|-----------|


 [Outro]

e|-----------------------------|
B|----------------------------|
G|----------------------------|
D|--9-9--7-7--12-12------|----|
A|--9-9--7-7--12-12--2-2-|x4--|
E|--7-7--5-5--10-10--0-0-|----|

************************************

| x  Dead note
| h  Hammer-on
| \  Slide down
| b  Bend
************************************

            
            
Suggest correction
Creating personal tab
Creating personal tab
You can edit any tab online and save it as your Personal.

You can edit, replace or remove any tab part or add personal notes – all changes will be seen only by you.

Personal tabs can be accessed anytime from any device, even offline.
Learn more »
comments
print report bad tab
4 comments total. Showing first comments.
0 reply
Cavalier25 10 Mar 21, 2017 04:15 PM

Perfect! Been looking for their tabs everywhere, great job!

0 reply
pauldearlove 10 May 23, 2017 07:06 AM

Loving these guys at the moment, thanks a heap! Anyone know if this is all finger picking or does he use a pick on the bottom E string and for power chords?

0 reply
backspace1 100 Jun 10, 2017 07:21 AM

i think, he just use a pick on the bottom E string

guest
You may want to rate the tab now too:
select rating
Wanna post a correction for this tab? Suggest correction